Verdena - Phantastica Chords & Tabs

 

Phantastica Chords & Tabs

Verdena Chords & Tabs

Version: 2 Type: Bass Tab 1 rating
1 star 2 stars 3 stars 4 stars 5 stars
comments

Phantastica Bass Tab

   
VERDENA - PHANTASTICA

BASS TAB

Main riff:
Gb|----------------|-------------------------|-----------------|-----------------|
Db|----------------|-------------------------|-----------------|-----------------|
Ab|----------------|-------------------------|-----------------|-----------------|
Eb|--6-6----8-8----|-10-10-10-10-10-10-10-10-|-8-8-8-8-8-8-8-8-|-8-8-8-8-8-8-8-8-|

Dopo verso 1 e 2:
Gb|-----------------|
Db|-----------------|
Ab|-----------------|x2
Eb|-5-5-5-5-5-5-5-5-|

Chorus:
Gb|-----------------|-----------------|-----------------|-----------------| 
Db|-----------------|-----------------|-----------------|-----------------| 
Ab|-5-5-5-5-5-5-5-5-|-5-5-5-5-3-3-3---|-----------------|-----------------|x3 
Eb|-----------------|-----------------|-3-3-3-3-3-3-3-3-|-3-3-3-3-3-3-3-3-|

Verso 3:
Gb|----------------|-------------------------|-----------------|-----------------|
Db|----------------|-------------------------|-----------------|-----------------|
Ab|----------------|-------------------------|-----------------|-----------------|
Eb|----------------|-10-10-10-10-10-10-10-10-|-8-8-8-8-8-8-8-8-|-8-8-8-8-8-8-8-8-|
[ Tab from: http://www.guitartabs.cc/tabs/v/verdena/phantastica_btab_ver_2.html ]
Gb|----------------|-------------------------|-----------------|-----------------|
Db|----------------|-------------------------|-----------------|-----------------|
Ab|----------------|-------------------------|-----------------|-----------------|
Eb|--6-6----8-8----|-10-10-10-10-10-10-10-10-|-8-8-8-8-8-8-8-8-|-8-8-8-8-8-8-8-8-|

Gb|----------------|-------------------------|-------------------------|-------------------------|
Db|----------------|-------------------------|-------------------------|-------------------------|
Ab|----------------|-------------------------|-------------------------|-------------------------|
Eb|--6-6----8-8----|-10-10-10-10-10-10-10-10-|-10-10-10-10-10-10-10-10-|-10-10-10-10-10-10-10-10-|

Coda (da "...e credo di essere anormale..."):
Gb|-----------------|-----------------|-------------------------|
Db|-----------------|-----------------|-------------------------|x 4
Ab|---------3-3-3-3-|---------5-5-5-5-|-------------------------|
Eb|-1-1-1-1---------|-3-3-3-3---------|-6-6-6-6-6-8-5-5-5-5-5-5-|

Ending:
Gb|----------------|--------|
Db|----------------|--------|
Ab|----------------|--------|
Eb|--6-6----8-8----|-8------|


Per commenti o correzioni la mia mail รจ fleafly_@libero.it
Comments