Verdena - Luna Chords & Tabs

 

Luna Chords & Tabs

Verdena Chords & Tabs

Version: 1 Type: Bass Tab 0 ratings
1 star 2 stars 3 stars 4 stars 5 stars
comments

Luna Bass Tab

VERDENA - LUNA 

BASS TAB

Main Riff:
1|-------------------------------------------------|
2|-------------------------------------------------|
3|-0--0--020--0--0--55/9--0--0--020--0--0--10-10/7-|
4|-------------------------------------------------|

Chorus 1 & 3:
1|-----------------------------------------------------------------|
2|-----------------------------------------------------------------|
3|-2-2-2-2-2-2-2-2-2-2-2-2-2-2-2-2-0-0-0-0-0-0-0-0-0-0-0-0-0-0-0-0-|
4|-----------------------------------------------------------------|

1|-----------------------------------------------------------------|
2|-----------------------------------------------------------------|
3|---------------------------------0-0-0-0-0-0-0-0-0-0-0-0-0-0-0-0-|
4|-3-3-3-3-3-3-3-3-3-3-3-3-3-3-3-3---------------------------------|
[ Tab from: http://www.guitartabs.cc/tabs/v/verdena/luna_btab.html ]
1|-----------------------------------------------------------------|
2|-----------------------------------------------------------------|
3|-2-2-2-2-2-2-2-2-2-2-2-2-2-2-2-2---------------------------------|
4|---------------------------------3-3-3-3-3-3-3-3-3-3-3-3-3-3-3-3-|

Chorus 2:
1|-----------------------------------------------------------------|
2|-----------------------------------------------------------------|
3|-2-2-2-2-2-2-2-2-2-2-2-2-2-2-2-2-0-0-0-0-0-0-0-0-0-0-0-0-0-0-0-0-|
4|-----------------------------------------------------------------|

1|-----------------------------------------------------------------|
2|-----------------------------------------------------------------|
3|---------------------------------0-0-0-0-0-0-0-0-0-0-0-0-0-0-0-0-|
4|-3-3-3-3-3-3-3-3-3-3-3-3-3-3-3-3---------------------------------|

1|-----------------------------------------------------------------|
2|-----------------------------------------------------------------|
3|-2-2-2-2-2-2-2-2-2-2-2-2-2-2-2-2-2-2-2-2-2-2-2-2-2-2-2-2-2-2-2-2-|
4|-----------------------------------------------------------------|



Per commenti o correzioni la mia mail รจ fleafly_@libero.it


Comments