Verdena - Il Tramonto Degli Stupidi Chords & Tabs

 

Il Tramonto Degli Stupidi Chords & Tabs

Verdena Chords & Tabs

Version: 1 Type: Tab 0 ratings
1 star 2 stars 3 stars 4 stars 5 stars
comments

Il Tramonto Degli Stupidi Tab

   
VERDENA - IL TRAMONTO DEGLI STUPIDI

BASS TAB

Abbassare l'accordatura di 1/2 tono (Eb Ab Db Gb)

Intro (dopo l'arpeggio iniziale):
Gb|--------------------------------------------------------------------|
Db|--------------------------------------------------------------------|
Ab|--------------------------------------------------------------------|
Eb|-3-3-3-3-3-3-3-3-3-3-3-3-3-3-3-3-/10-10/15-15-15-15-15-15-15-15-etc-|

poi:
Gb|-----------------------------------------------------|
Db|-----------------------------------------------------|
Ab|-----------------------------------------------------|
Eb|-15-15-15-15-15-15-15-15-15-15-15-15-15-15-15-15-etc-|
  Chimera sei  Dea dell’universo 

Gb|-----------------------------------------------------|
Db|-----------------------------------------------------|
Ab|-----------------------------------------------------|
Eb|-10-10-10-10-10-10-10-10-10-10-10-10-10-10-10-10-etc-|
   Però     ormai   Ti concederai di tutto ma non credo 

Gb|-------------------------|
Db|-------------------------|
Ab|-------------------------|
Eb|-3-3-3-3-3-3/7-7-7-7-7-7-|

Gb|---------------------------------|
Db|---------------------------------|
Ab|---------------------------------|
Eb|-3-3-3-3-3-3-3-3-3-3-3-3-3-3-3-3-|
  Così io congelo Le lacrime che hai 
[ Tab from: http://www.guitartabs.cc/tabs/v/verdena/il_tramonto_degli_stupidi_tab.html ]
Gb|-----------------------------------------------------|
Db|-----------------------------------------------------|
Ab|-----------------------------------------------------|
Eb|-15-15-15-15-15-15-15-15-15-15-15-15-15-15-15-15-etc-|
    È inutile             Sembra ieri e tremi 
Gb|-----------------------------------------------------|
Db|-----------------------------------------------------|
Ab|-----------------------------------------------------|
Eb|-10-10-10-10-10-10-10-10-10-10-10-10-10-10-10-10-etc-|
   Però     ormai     Ti concederò il lusso di colpirmi 

Gb|-------------------------|
Db|-------------------------|
Ab|-------------------------|
Eb|-3-3-3-3-3-3/7-7-7-7-7-7-|

Gb|-------------------------------------------------|
Db|-------------------------------------------------|
Ab|-------------------------------------------------|x4
Eb|-7--7--7--7--7--7--7--7--3-3-3-3-3-3/7-7-7-7-7-7-|
   E ancora mi sento vile
   E ancora mi sento vile yeeh
   E ancora mi sento vile
   E ancora mi sento vile yeeh

Gb|---------------|
Db|---------------|
Ab|---------------|x3
Eb|-3-3-3-3-3-3-3-|

Gb|---------------------------------|
Db|---------------------------------|
Ab|---------------------------------|
Eb|-----------------3-3-3-3-3-3-3-3-|
   Che buia sei 
Gb|-------------------------------------------------|
Db|-------------------------------------------------|
Ab|-------------------------------------------------|
Eb|-15-15-15-15-15-15-15-15-15-15-15-15-15-15-15-15-|
   Dea  dell’universo 

Gb|-----------------------------------------------------|
Db|-----------------------------------------------------|
Ab|-----------------------------------------------------|
Eb|-10-10-10-10-10-10-10-10-10-10-10-10-10-10-10-10-etc-|
   Però     ormai     Ti concederò il lusso di colpirmi 

Gb|----------------|
Db|----------------|
Ab|----8-----------|
Eb|-------8----8---|
   Colpirmi qui 


Bridge:
Gb|-----------------------------------------------|
Db|--2-2-2-2-2-2-2-2-2-2-2--0-0-0-0-0-0-0-0-0-0-0-|etc etc
Ab|-0----------------------0----------------------|
Eb|-----------------------------------------------|

Finale (distorto):
Gb|-------------------------|
Db|-------------------------|
Ab|-------------------------|x7
Eb|-3-3-3-3-3-3/7-7-7-7-7-7-|


Per commenti o correzioni la mia mail è fleafly_@libero.it




                                                  
Comments