Verdena - Far Fisa Chords & Tabs

 

Far Fisa Chords & Tabs

Verdena Chords & Tabs

Version: 1 Type: Bass Tab 0 ratings
1 star 2 stars 3 stars 4 stars 5 stars
comments

Far Fisa Bass Tab

   
VERDENA - FAR FISA

BASS TAB

Accordatura: Drop 1/2 tono sotto, cioè [C# G# C# F#] 
o se preferite [Db Ab Db Gb]


Dopo l'intro di organo:
1|---------------|---------------|---------------|---------------|
2|---------------|---------------|---------------|---------------|
3|-2-2-22-2-2-22-|-5-5-55-5-5-55-|-0-0-00-0-0-00-|-2-2-22-2-2-22-|x 2
4|---------------|---------------|---------------|---------------|

Verso 1:
1|---------------|---------------|--------4-4-44-|--------4-4-44-|
2|---------------|---------------|---------------|---------------|
3|-2-2-22-2-2-22-|-5-5-55-5-5-55-|-2-2-22--------|-5-5-55--------|x 3
4|---------------|---------------|---------------|---------------|

1|---------------|---------------|
2|---------------|---------------|
3|-2-2-22-2-2-22-|-5-5-55-5-5-55-|
4|---------------|---------------|

Ritornello:
1|-----------------|-----------------|-----------------|-----------------|
2|-----------------|-----------------|-----------------|-----------------|
3|-7-7-7-7-7-7-7-7-|-7-7-7-7-7-7-7-7-|-----------------|-----------------|x 2
4|-----------------|-----------------|-7-7-7-7-7-7-7-7-|-7-7-7-7-7-7-7-7-|
[ Tab from: http://www.guitartabs.cc/tabs/v/verdena/far_fisa_btab.html ]
Verso 2:
1|---------------|---------------|------------------------|------------------------|
2|---------------|---------------|------------------------|------------------------|
3|-2-2-22-2-2-22-|-5-5-55-5-5-55-|------------------------|------------------------|x 3
4|---------------|---------------|-7/19-19-19-19-19-19-19-|-7/19-19-19-19-19-19-19-|


1|---------------|---------------|
2|---------------|---------------|
3|-2-2-22-2-2-22-|-5-5-55-5-5-55-|
4|---------------|---------------|

Basso durante gli assoli di chitarra:
1|-----------------|-----------------|-----------------|-----------------|
2|-----------------|-----------------|-----------------|-----------------|
3|-----------------|-----------------|-----------------|-----------------|
4|-7-7-7-7-7-7-7-7-|-7-7-7-7-7-7-7-7-|-0-0-0-0-0-0-0-0-|-0-0-0-0-0-0-0-0-|

Coda:
1|-------------|-------------------------|-------------------------|-----------------|-----------------|
2|-------------|-------------------------|-------------------------|-----------------|-----------------|
3|-2-----3-----|-------------------------|-------------------------|-----------------|-----------------|
4|-------------|-12-12-12-12-12-12-12-12-|-12-12-12-12-12-12-12-12-|-7-7-7-7-7-7-7-7-|-7-7-7-7-7-7-7-7-|

Ending:
1|-------------|-------|
2|-------------|-------|
3|-2-----3-----|-2-----|
4|-------------|-------|

Comments