Verdena - Cara Prudenza Chords & Tabs

 

Cara Prudenza Chords & Tabs

Verdena Chords & Tabs

Version: 2 Type: Bass Tab 0 ratings
1 star 2 stars 3 stars 4 stars 5 stars
comments

Cara Prudenza Bass Tab

VERDENA - CARA PRUDENZA

BASS TAB

Intro / Ritornello / Gtr Solo:
Gb|----------|------------|----------------|--------------|
Db|----------|------------|----------------|--------------|
Ab|----------|------------|----------------|--------------|poi ripetere dalla 3a battuta
Eb|-33-3-3---|---55-5-7---|-7-777-33-3-3---|-3-333-55-5-7-|
[ Tab from: http://www.guitartabs.cc/tabs/v/verdena/cara_prudenza_btab_ver_2.html ]
Verso:
Gb|--------------------------|
Db|--------------------------|
Ab|-----10---1010-10-10-10---|
Eb|-7-7----------------------|

Il verso finisce con:
Gb|--------------------------|
Db|--------------------------|
Ab|-----10-----------10------|
Eb|--------------------------|

Per commenti o correzioni la mia mail รจ fleafly_@libero.it


Comments