Verdena - Balanite Chords & Tabs

 

Balanite Chords & Tabs

Verdena Chords & Tabs

Version: 2 Type: Bass Tab 1 rating
1 star 2 stars 3 stars 4 stars 5 stars
comments

Balanite Bass Tab

VERDENA - BALANITE

BASS TAB

Intro / verso:
Gb|-----------------|-----------------|-----------------|---------------------|
Db|-----------------|-----------------|-7-7-7-7-7-7-7-7-|-10-10-10-10-7-7-7-7-|
Ab|-8-8-8-8-8-8-8-8-|-7-7-7-7-7-7-7-7-|-----------------|---------------------|
Eb|-----------------|-----------------|-----------------|---------------------|

Gb|-----------------|-----------------|-----------------|---------------------|
Db|-----------------|-----------------|-7-7-7-7-7-7-7-7-|-7-7-7-7-10-10-10-10-|
Ab|-8-8-8-8-8-8-8-8-|-7-7-7-7-7-7-7-7-|-----------------|---------------------|
Eb|-----------------|-----------------|-----------------|---------------------|
[ Tab from: http://www.guitartabs.cc/tabs/v/verdena/balanite_btab_ver_2.html ]
Chorus:
Gb|-----------------|-----------------|-----------------|-----------------|
Db|-----------------|-----------------|-----------------|-----------------| |
Ab|-----------------|-----------------|-----------------|-----------------| |
Eb|-3-3-3-3-3-3-3-3-|-3-3-3-3-3-3-3-3-|-3-3-3-3-3-3-3-3-|-3-3-3-3-3-3-3-3-| |
                                                                            |x 2
Gb|-----------------|-----------------|-----------------|-----------------| |
Db|-----------------|-----------------|-----------------|-----------------| |
Ab|-5-5-5-5-5-5-5-5-|-5-5-5-5-5-5-5-5-|-5-5-5-5-5-5-5-5-|-5-5-5-5-5-5-5-5-| |
Eb|-----------------|-----------------|-----------------|-----------------|

Outro:
Gb|-----------------|-----------------|-----------------|-----------------|
Db|-2-2-2-2-2-2-2-2-|-2-2-2-2-2-2-2-2-|-----------------|-----------------| 
Ab|-----------------|-----------------|-0-0-0-0-0-0-0-0-|-0-0-0-0-0-0-0-0-| 
Eb|-----------------|-----------------|-----------------|-----------------|


Per commenti o correzioni la mia mail รจ fleafly_@libero.it
Comments