Verdena - Balanite Chords & Tabs

 

Balanite Chords & Tabs

Verdena Chords & Tabs

Version: 1 Type: Bass Tab

Balanite Bass Tab

VERDENA - BALANITE 

BASS TAB

1|-----------------------------------------------------------------|
2|---------------------------------6-6-6-6-6-6-6-6-9-9-9-9---------|
3|-7-7-7-7-7-7-7-7-6-6-6-6-6-6-6-6-------------------------9-9-9-9-|
4|-----------------------------------------------------------------|
[ Tab from: http://www.guitartabs.cc/tabs/v/verdena/balanite_btab.html ]
1|-----------------------------------------------------------------|
2|---------------------------------6-6-6-6-6-6-6-6-6-6-6-6-9-9-9-9-|
3|-7-7-7-7-7-7-7-7-6-6-6-6-6-6-6-6---------------------------------|
4|-----------------------------------------------------------------|

Per commenti o correzioni la mia mail รจ fleafly_@libero.it