Verdena - Apice Chords & Tabs

 

Apice Chords & Tabs

Verdena Chords & Tabs

Version: 1 Type: Tab 0 ratings
1 star 2 stars 3 stars 4 stars 5 stars
comments

Apice Tab

VERDENA - APICE

Accordare 1/2 tono sotto

main riff:
1|-------------------------0------
2|-----0-------0------------------
3|---0---0---0---0-------0--------
4|--------------------------------
5|-2-------2-------2-0------------
6|---------------------0----------
[ Tab from: http://www.guitartabs.cc/tabs/v/verdena/apice_tab.html ]
Parte ritmica (presa in prestito dalla tab di denialgtr che ringrazio): 
1|-----------------|-----------------|-----------------|-----------------|
2|-0-0-0-0-0-0-0-0-|-0-0-0-0-0-0-0-0-|-0-0-0-0-0-0-0-0-|-0-0-0-0-0-0-0-0-|
3|-4-4-4-4-4-4-4-4-|-4-4-4-4-4-4-4-4-|-4-4-4-4-4-4-4-4-|-4-4-4-4-4-4-4-4-|
4|-4-4-4-4-4-4-4-4-|-4-4-4-4-4-4-4-4-|-5-5-5-5-5-5-5-5-|-5-5-5-5-5-5-5-5-|
5|-2-2-2-2-2-2-2-2-|-2-2-2-2-2-2-2-2-|-3-3-3-3-3-3-3-3-|-3-3-3-3-3-3-3-3-|
6|-----------------|-----------------|-----------------|-----------------|

1|-----------------|-----------------|-----------------|-----------------|
2|-0-0-0-0-0-0-0-0-|-0-0-0-0-0-0-0-0-|-0-0-0-0-0-0-0-0-|-0---------------|
3|-4-4-4-4-4-4-4-4-|-4-4-4-4-4-4-4-4-|-4-4-4-4-4-4-4-4-|-4---------------|
4|-4-4-4-4-4-4-4-4-|-4-4-4-4-4-4-4-4-|-5-5-5-5-5-5-5-5-|-5---------------|
5|-2-2-2-2-2-2-2-2-|-2-2-2-2-2-2-2-2-|-3-3-3-3-3-3-3-3-|-3---------------|
6|-----------------|-----------------|-----------------|-----------------|


Per commenti o correzioni la mia mail รจ fleafly_@libero.it


Comments