Verde 70 - En La Inmensidad Chords & Tabs

 

En La Inmensidad Chords & Tabs

Verde 70 Chords & Tabs

Version: 1 Type: Tab 0 ratings
1 star 2 stars 3 stars 4 stars 5 stars
comments

En La Inmensidad Tab

   
verde 70
en la inmensidad
ruta melancolia

intro

e|------------------------||
B|------------------------||
G|--10-12-12/14 12-10-----||
D|------------------------||
A|---8-10-10/12 10-8------||
E|------------------------||


intro (2x)
1 guitarra		      F		       C	      Dm
        Bb    e|-----------------------------------------------------------------------||
B|-----------------------5---5--5---5----6---6--6---6----------------------------------||
G|----2----2--2----2-----5---5--5---5----7---7--7---7----7---7--7---7------------------||
D|----3----3--3----3-----5---5--5---5----7---7--7---7----8---8--8---8------------------||
A|----3----3--3----3-----3---3--3---3----5---5--5---5----8---8--8---8------------------||
E|----1----1--1----1-------------------------------------6---6--6---6------------------||

    2 guitarra    e|-----------------------------------------------------------------------|||
B|-----------------------------------------------------------------------------------------|||
G|--10-12-12/14 12-10---5-7-7/9~ 7-5----7-9-9/10-9-7---------------------------------------|||
D|-------------------------------------------------------8-10-10/12~~ ---------------------|||
A|---8-10-10/12 10-8----3-5-5/7~ 5-3----5-7-7/8~ 7-5---------------------------------------|||
E|-------------------------------------------------------6--8--8/10~~ ---------------------|||


e|----------------------------------------------------------||
B|----------------------------------------------------------||
G|---2-2-2-2-------5-5-5-5-------7-7-7-7--------------------||
D|---3-3-3-3-------5-5-5-5-------7-7-7-7-------8-8-8-8------||
A|---3-3-3-3-------3-3-3-3-------5-5-5-5-------8-8-8-8------||
E|---1-1-1-1-----------------------------------6-6-6-6------||


        e|-----------1-1-----------3-3-----------5-5-----------6-6----||
B|-----------1-1-----------5-5-----------6-6-----------6-6------------||
G|-----------2-2-----------5-5-----------7-7-----------7-7------------||
D|--------------------------------------------------------------------||
A|--------------------------------------------------------------------||
E|--------------------------------------------------------------------||


        e|--------------------------------------------------------------------||
B|----------------------------------------------------------------------------||
G|---2-2-2-2-------5-5-5-5-------7-7-7-7--------------------------------------||
D|---3-3-3-3-------5-5-5-5-------7-7-7-7-------8-8-8-8-------8-8/10-----------||
A|---3-3-3-3-------3-3-3-3-------5-5-5-5-------8-8-8-8-------8-8/10-----------||
E|---1-1-1-1-----------------------------------6-6-6-6-------6-6/8------------||

        e|----------1-1-1-1-------3-3-3-3-------5-5-5-5-------6-6-6-6-6-88----||
B|----------1-1-1-1-------5-5-5-5-------6-6-6-6-------6-6-6-6-6-88------------||
G|----------2-2-2-2-------5-5-5-5-------7-7-7-7-------7-7-7-7-7-99------------||
D|----------------------------------------------------------------------------||
A|----------------------------------------------------------------------------||
E|----------------------------------------------------------------------------||

PRe chorus

			     F		       C	      Dm	      Bb
        e|-----------------------------------------------------------------------||
B|-----------------------5---5--5---5----6---6--6---6----------------------------||
G|----2----2--2----2-----5---5--5---5----7---7--7---7----7---7--7---7------------||
D|----3----3--3----3-----5---5--5---5----7---7--7---7----8---8--8---8------------||
A|----3----3--3----3-----3---3--3---3----5---5--5---5----8---8--8---8------------||
E|----1----1--1----1-------------------------------------6---6--8---8------------||

e|--------------------------------------------------------------------------------|
B|--------------------------------------------------------------------------------|
G|--10-12-12/14~ 12-10---5-7-7/9~ 7-5----7-9-9/10-9-7-----------------------------|
D|-------------------------------------------------------8-10-10/12~~-------------|
A|---8-10-10/12~ 10-8----3-5-5/7~ 5-3----5-7-7/8~ 7-5-----------------------------|
E|-------------------------------------------------------6--8--8/10~~ ------------|

			     F		       C	      Dm	    Bb	    C	 F
        e|------------------------------------------------------------------------------||
B|-----------------------5---5--5---5----6---6--6---6----3--3--3-5--5--5----------------||
G|----2----2--2----2-----5---5--5---5----7---7--7---7----3--3--3-5--5--5-2--------------||
D|----3----3--3----3-----5---5--5---5----7---7--7---7----3--3--3-5--5--5-3--------------||
A|----3----3--3----3-----3---3--3---3----5---5--5---5----1--1--1-3--3--3-3--------------||
E|----1----1--1----1-----------------------------------------------------1--------------||

        e|------------------------------------------------------------------------------||
B|--------------------------------------------------------------------------------------||
G|--10-12-12/14~12-10---5-7-7/9~7-5----7-9-9/10-9-7----3-5-5/7-5-7-7/9-10---------------||
D|--------------------------------------------------------------------------------------||
A|---8-10-10/12~10-8----3-5-5/7~5-3----5-7-7/8~7-5----1-3-3/5-3-5-5/7-8-----------------||
E|--------------------------------------------------------------------------------------||

chorus:


	     F	        C      Dm 	   Bb	     F
e|-----------------------------------------------------------||
B|-----------------------------------------------------------||
G|----------------------5-----7---7--------------------------||
D|----------------------5-----7---7------8---8-----3---3-----||
A|----------------------3-----5---5------8---8-----3---3-----||
E|---------------------------------------6---6-----1---1-----||

[ Tab from: http://www.guitartabs.cc/tabs/v/verde_70/en_la_inmensidad_tab.html ]
       C	 D	   Bb	      F		  Am
e|-----------------------------------------------------------||
B|-----------------------------------------------------------||
G|---5---5-----7---7-----------------------------------------||
D|---5---5-----7---7-----8---8------3---3-------7---7--------||
A|---3---3-----5---5-----8---8------3---3-------7---7--------||
E|-----------------------6---6------1---1-------5---5--------||


	  D	      Bb
e|-------------------------------||
B|-------------------------------||
G|------7---7--------------------||
D|------7---7-------8---8--------||
A|------5---5-------8---8--------||
E|------------------6---6--------||


        F	    C         Dm 	Bb	   F
e|-------------------------------------------------------------||
B|-------------------------------------------------------------||
G|---------------5----5-----7---7------------------------------||
D|----3---3------5----5-----7---7------8---8-----3---3---------||
A|----3---3------3----3-----5---5------8---8-----3---3---------||
E|----1---1----------------------------6---6-----1---1---------||


       C	 D	   Bb	      F		  Am
e|-----------------------------------------------------------||
B|-----------------------------------------------------------||
G|---5---5-----7---7-----------------------------------------||
D|---5---5-----7---7-----8---8------3---3-------7---7--------||
A|---3---3-----5---5-----8---8------3---3-------7---7--------||
E|-----------------------6---6------1---1-------5---5--------||


	  D	      Bb	  F	C
e|-------------------------------------------||
B|-------------------------------------------||
G|------7---7---------------------------5----||
D|------7---7-------8---8-------3---3---5----||
A|------5---5-------8---8-------3---3---3----||
E|------------------6---6-------1---1--------||

intro (2x)

		       F	     C		D	     Bb
        e|--------1------------3-----------5-------------6--------------------||
        B|-------1------------5-----------6-------------6---------------------||
  Guitarra #1    G|------2------------5-----------7-------------7-------------||
        D|-----3------------5-----------7-------------8-----------------------||
        A|----3------------3-----------5-------------8------------------------||
        E|---1--------------------------------------6-------------------------||

        e|-------------8------------8-----------8-------------8---------------||
  Guitarra #2    B|-----------6------------6-----------6-------------6--------||
        G|--------------------------------------------------------------------||

Solo

	   Dm		Am
e|-------------------8---5------------------|
B|---6/8\6---6/8\6-----8--6-8b10r8p6---6-8--|
G|---7/9\7---7/9\7-------------------7------|
D|------------------------------------------|
A|------------------------------------------|
E|------------------------------------------|

	   Dm		Am
e|-------------------13---------------------|
B|---6/8\6---6/8\6------13-10--------/10~ --|
G|---7/9\7---7/9\7------------12-10--/9 ~ --|
D|------------------------------------------|
A|------------------------------------------|
E|------------------------------------------|

2da guitarra hace
F, C, Dm, Bb

(Distorsion)

e|----------------------------------12---------------------|
B|-------------------------------12------------------------|
G|-----------10-12~ -12-10-12b14-------12b14r12p10-12~ 10--|
D|-----10-12-----------------------------------------------|
A|--12-----------------------------------------------------|
E|---------------------------------------------------------|

e|-----------------------------------------------|---------------------------------|
B|--13-11-10p11h10----10-------------------------|---------------------------------|
G|-----------------12----12b14-12-10-12b14~ -10--|--10-9h10p9----9-----------------|
D|-----------------------------------------------|------------12---12p10----12-10--|
A|-----------------------------------------------|-----------------------12--------|
E|-----------------------------------------------|---------------------------------|


e|-----------12----------------------------------------------------------------------|
B|--------12----12-13p11-10-11-10h11p10----10----------------------------------------|
G|--12b14-------------------------------12----12-10-9-10-9h10p9----9-----------------|
D|--------------------------------------------------------------12---12----10-12-10--|
A|----------------------------------------------------------------------12-----------|
E|-----------------------------------------------------------------------------------|

e|-----------13----15~ -13-15/17~ --17-18-17--------------|
B|--------------13---------------------------19b20-18~\---|
G|--12-12/14----------------------------------------------|
D|--------------------------------------------------------|
A|--------------------------------------------------------|
E|--------------------------------------------------------|


e|------------------------------------------------------||
B|------------------------------------------------------||
G|---2---2---------5---5---------7---7------------------|| 4x
D|---3---3---------5---5---------7---7--------8---10----||
A|---3---3---------3---3---------5---5--------8---10----||
E|---1---1------------------------------------6---8-----||
	Por eso me pierdo la vida y té buscooo...

OUTRO
(F C Dm Bb)

E|--------------------------------------------------------------------|
B|------------------10-10-8----8----------------------10-10-11-10-8---|
G|--------10--10-10---------10---------------10-10-10-----------------|
D|--10h12-----------------------------10h12---------------------------|
A|--------------------------------------------------------------------|
E|--------------------------------------------------------------------|
Comments