Verde 70 - Alegre Depresion Chords & Tabs

 

Alegre Depresion Chords & Tabs

Verde 70 Chords & Tabs

Version: 1 Type: Tab 0 ratings
1 star 2 stars 3 stars 4 stars 5 stars
comments

Alegre Depresion Tab

   
This is an ecuadorian band, go to their official page at www.verde70.com/
INTRO: ( 3 VECES )

e|------------------------------------
B|--3------3----3-----3-----3---------
G|----2-----2----2-----2-----2--------
D|-0----------------------------------
A|-------4----2-----0------2---4------
E|------------------------------------

   G	    A            D    A   B  
E|----------------------------------------------|
B|----------------------------------------------|
G|----------------(9)----7777--------(9)-(9)----|
D|-555555-5/7--(9)---(9)-7777-777/9---------(9)-|
A|-555555-5/7------------5555-777/9-------------|
E|-333333-3/5-----------------555/7-------------|

   G	    A            F#     B  
E|------------------------------------------|
B|------------------------------------------|
G|----------------(9)-----------4----7-7----|
D|-555555-5/7--(9)---(9)-444444-4-----------|
A|-555555-5/7------------444444-2-----------|
E|-333333-3/5------------222222-------------|

   G	    A            D    A   B  
E|----------------------------------------------|
B|----------------------------------------------|
G|----------------(9)----7777--------(9)-(9)----|
D|-555555-5/7--(9)---(9)-7777-777/9---------(9)-|
A|-555555-5/7------------5555-777/9-------------|
E|-333333-3/5-----------------555/7-------------|

   G	    A            F#     B      
E|------------------------------------------|
B|------------------------------------------|
G|----------------(9)-----------4----7p6b---|
D|-555555-5/7--(9)---(9)-444444-4-----------|
A|-555555-5/7------------444444-2-----------|
E|-333333-3/5------------222222-------------|

          1                          2
Estoy tratando de encontrar aquel camino junto al mar
          1                        3
Estoy buscando la harmonía que me haga sentir bien
            4                        5
Hoy quiero respirar soñar, sentirme libre una vez más 
          1                       2
Tan solo busco una mirada que me pueda rescatar, 
        1                              3
Una sonrisa que me envuelva y que me ayude a sonreir,
           4                           5
me saque de una vez del hueco y que me lleve a otro
lugar.
   
                           6                     6
Donde el tiempo este demás,  donde te pueda olvidar,
                                     7           8
donde te pueda enterrar borrar mi estupida ansiedad
[ Tab from: http://www.guitartabs.cc/tabs/v/verde_70/alegre_depresion_tab.html ]
          1                               2
Estoy buscando y no la encuentro y sin embargo sé que está
          1                       3      
en algun sitio esa mirada que me pueda rescatar
           4                             5   
me saque de una vez del hueco y que me lleve a otro lugar.

uhhhh uh uh..........(X3)
   D     A    B      F#
E|--------------------------|
B|--------------------------|
G|-77777------444444--------|
D|-77777-7777-444444-4444---|
A|-55555-7777-222222-4444---|
E|-------5555--------2222---|
                          6                       6
Donde el tiempo este demás, donde te pueda olvidar,
                                       7         8
donde te pueda enterrar borrar mi estupida ansiedad

uhhhh uh uh..........( 4 VECES )
   D     A    B      F#
E|-------------------------------------------------------|
B|-------------------------------------------------------|
G|-77777------444444-------77777------444444-------------|
D|-77777-7777-444444-4444--77777-7777-444444-4444--------|
A|-55555-7777-222222-4444--55555-7777-222222-4444--------|
E|-------5555--------2222--------5555--------2222--------| 

E|-------------------------------------------------------|
B|-------------------------------------------------------|
G|-77777------444444-------77777------444444-------------|
D|-77777-7777-444444-4444--77777-7777-444444-4444--------|
A|-55555-7777-222222-4444--55555-7777-222222-4444--------|
E|-------5555--------2222--------5555--------2222--------|

E|-------------------------------------------------------|
B|-------------------------------------------------------|
G|-99999------666666-------99999------666666-------------|
D|-99999-9999-666666-6666--99999-9999-666666-6666--------|
A|-77777-9999-444444-6666--77777-9999-444444-6666--------|
E|-------7777--------4444--------7777--------4444--------|

OUTRO:

E|------------------------------------------------|
B|------------------------------------------------|
G|----------------(9)------7777--------(9)(9)-----|
D|-555555-5/7--(9)---(9)---7777-7777/9-------(9)--|
A|-555555-5/7--------------5555-7777/9------------|
E|-333333-3/5-------------------5555/7------------|


E|------------------------------------------------|
B|------------------------------------------------|
G|---------------(9)------------------------------|
D|-555555-5/7-(9)---(9)--4444444-4/5--------------|
A|-555555-5/7------------4444444-4/5--------------|
E|-333333-3/5------------2222222-2/3--------------|




RIFFS:



1:D|-555555-5/7----|         6:e|-0--0--0-0-0----0--|
  A|-555555-5/7----|           B|--3--3----3-3--3---|
  E|-333333-3/5----|           G|---2--2-------2----|


2:G|-7777----------|         7:D|-555--|
  D|-7777-7777/9---|           A|-555--|
  A|-5555-7777/9---|           E|-333--|
  E|------5555/7---|

3:G|---------4--|            8:D|-777--|
  D|-4444444-4--|              A|-777--|
  A|-4444444-2--|              E|-555--|
  E|-2222222----|

4:D|-5555555----|
  A|-5555555----|
  E|-3333333----|

5:D|-7777777----
  A|-7777777----
  E|-5555555----
Comments