Ventures - Wipe Out Chords & Tabs

 

Wipe Out Chords & Tabs

Ventures Chords & Tabs

Version: 1 Type: Tab 0 ratings
1 star 2 stars 3 stars 4 stars 5 stars
comments

Wipe Out Tab

The is basically the whole song
[ Tab from: http://www.guitartabs.cc/tabs/v/ventures/wipe_out_tab.html ]
          1                 2               3                4
|------------------|-----------------|-----------------|-------------|
|------------------|-----------------|-----------------|-------------|
|------------------|---3-4-5-5-5-3---|---5-6-7-7-7-5---|---5-6-7-7-7-|
|----3-4-5-5-5-3---|-5-------------5-|-7-------------7-|-7-----------|
|--5-------------5-|-----------------|-----------------|-------------|
|------------------|-----------------|-----------------|-------------|

order                       5(during drum solo)
1-(x4)            |---------------------|
2-(x2)            |---------------------|
1-(x2)            |---------------------|
3-(x1)            |-------5--5----------|
2-(x1)            |-5--5--3--3--5--5--5-|
1-(x1)            |-3--3--------3--3--3-|
4-(x1)            
5-(x1)
repeat all
Comments