Ventures - Walk Dont Run Chords & Tabs

 

Walk Dont Run Chords & Tabs

Ventures Chords & Tabs

Version: 9 Type: Tab 0 ratings
1 star 2 stars 3 stars 4 stars 5 stars
comments

Walk Dont Run Tab

   
Tuning: Standard

Intro:
   3x   3x   3x   2x
e|--5----3----1----0--|
B|--5----3----1----0--|
G|--6----4----2----1--|
D|--7----5----3----2--|
A|--7----5----3----2--|
E|--x----x----x----x--|play twice


1st part:
e|---------------------------|
B|----2-----------------1-0--|
G|--2---------------0-2------|
D|------------0-2-3----------|
A|------0-2-3----------------|
E|---------------------------|

e|-----------------------------------------------------------------|
B|----2------------------------------------------------------------|
G|--2---------------0-2-0------------------------------------------|
D|------------0-2-3-------3-2-0-2-5-/-3-\-5-0-2-3-2-0---2/3---0----|
A|------0-2-3-----------------------------------------3-----3---3--|
E|-----------------------------------------------------------------|

e|---------------|
B|---------------|
G|-1-1-1-1-1-1-1-|
D|-2-2-2-2-2-2-2-|
A|---------------|
E|---------------|


2nd part
e|---------------------------|
B|----2-----------------1-0--|
G|--2---------------0-2------|
D|------------0-2-3----------|
A|------0-2-3----------------|
E|---------------------------|
[ Tab from: http://www.guitartabs.cc/tabs/v/ventures/walk_dont_run_tab_ver_9.html ]
e|-----------------------------------------------------------------|
B|----2------------------------------------------------------------|
G|--2---------------0-2-0------------------------------------------|
D|------------0-2-3-------3-2-0-2-5-/-3-\-5-0-2-3-2-0---2/3---0----|
A|------0-2-3-----------------------------------------3-----3---3--|
E|-----------------------------------------------------------------|

e|--------------------------------------------------------------------------------|
B|--------------------1-1-1-1-1-1--1---1--1~--------------0-----0------1~---------|
G|---------------0~~0-0-0-0-0-0-0--2-1-2--2~--2-----2-------1-----1----2~---------|
D|---------0-2-3----------------------2----------3-----3-------2-----2------------|
A|---0-2-3-----------------------------------------3-----3----------------7-5-3-2-|
E|-3------------------------------------------------------------------------------|


3rd part
e|---------------------------|
B|----2-----------------1-0--|
G|--2---------------0-2------|
D|------------0-2-3----------|
A|------0-2-3----------------|
E|---------------------------|

e|----------------------------------------------------1-3-3-1----------|
B|----2-----------------------------------------------0-4-4-0----------|
G|--2---------------0-2-0-------------------------------5-5-2----------|
D|------------0-2-3-------3-2-0-2-5-/-3-\-5-0-2-3-2-0------------------|
A|------0-2-3----------------------------------------------------------|
E|---------------------------------------------------------------------|

Play the intro and first 2 parts of the song again and end with this:


e|-----------8--|
B|--1-1-1-1--8--|
G|--0-0-2-2--9--|
D|--2-2-2-2--10-|
A|--------------|
E|--------------|
Comments