Ventures - Walk Dont Run Chords & Tabs

 

Walk Dont Run Chords & Tabs

Ventures Chords & Tabs

Version: 8 Type: Tab 0 ratings
1 star 2 stars 3 stars 4 stars 5 stars
comments

Walk Dont Run Tab

   
This is in standard tuning

e
b
g
d
a
e

Intro (2x)   (strum pattern not shown)

E----5----3----1----0-|
B----5----3----1----0-|
G----6----4----2----1-|
D----7----5----3----2-|
A----7----5----3----2-|
E----x----x----x----x-|

Verse        (At the end of the run play the intro over again)
[ Tab from: http://www.guitartabs.cc/tabs/v/ventures/walk_dont_run_tab_ver_8.html ]
E-------------------------------------------------------------------------------------------------0--|
B--------------------------------1-0--------------------------------------------------------------0--|
G----0-0-0-2----------------0-2-------0----------------0-2-0--------------------------------------1--|
D--------------------0-2-3----------------------0-2-3---------3-2-2-0-2-0-2-3-2-0-----2-----0-----2--|
A-------------0-2-3----------------------0-2-3-------------------------------------3-----3-----2--2--|
E-------------------------------------------------------------------------------------------------0--|

Verse 2

E------------------------------------------------------------------------------------------------|
B--------------------------------1-0-------------------------------------------------------------|
G----0-0-0-2----------------0-2-------0----------------0-2-0-------------------------------------|
D--------------------0-2-3----------------------0-2-3---------3-2-2-0-2-0-2-3-2-0-----2-----0----|
A-------------0-2-3----------------------0-2-3-------------------------------------3-----3-----3-|
E------------------------------------------------------------------------------------------------|

E---------------------------------------0----0-|
B---------------------------------------1----1-|
G------------------------------0-0-0-0--0----2-|
D-----------------------0-2-3-----------2----2-|
A----------------0-2-3------------------3----0-|
E-3-3-3-3-3-3-3-------------------------x----x-|
Comments