Ventures - Walk Dont Run Chords & Tabs

 

Walk Dont Run Chords & Tabs

Ventures Chords & Tabs

Version: 5 Type: Tab 1 rating
1 star 2 stars 3 stars 4 stars 5 stars
comments

Walk Dont Run Tab

   
Song: Walk Don't Run
Band: Ventures
Tabbed by: SpRiNgWaFfLe

     A A A  G G G  F F F  E
e||--5-5-5--3-3-3--1-1-1--0--||
b||.-5-5-5--3-3-3--1-1-1--0-.||
g||--6-6-6--4-4-4--2-2-2--1--||
d||--7-7-7--5-5-5--3-3-3--2--||
a||.-7-7-7--5-5-5--3-3-3--2-.||
e||--5-5-5--3-3-3--1-1-1--0--||

e---||---------------------------
b---||.-------------------1--0---
g---||--2-------------0-2------2-
d-2-||----------0-2-3------------
a---||.---0-2-3------------------
e---||---------------------------

e----------------------------------------------------
b----------------------------------------------------
g-------------0-2-0----------------------------------
d-------0-2-3-------3-2-1-2-2--0-2-3-2-0---0h2p0---0-
a-0-2-3----------------------------------3-------3---
e----------------------------------------------------
  
  __________________   _________________
 | 1                  | 2
e-------------------||------------------
b------------------.||------------------
g-1--1-1-1-1-1-1-1--||------------------
d-2--2-2-2-2-2-2-2--||------------0-2-3-
a------------------.||-3----0-2-3-------
e-------------------||----3-------------

  G  G  C  C C C C C  Am   Am Am
e---------------------0----0--0--
b-3--3--1--1-1-1-1-1--1----1--1--
g-0--0--0--0-0-0-0-0--2----2--2--
d-0--0--2--2-2-2-2-2--2--2-2--2--
a-------3--3-3-3-3-3--0----0--0--
e--------------------------------
  \/                           \/
[ Tab from: http://www.guitartabs.cc/tabs/v/ventures/walk_dont_run_tab_ver_5.html ]
                             Am
e----------------------------0-----------
b--------------0-----0-------1-----------
g-2-----2--------0------0----2-----------
d---3------3-------0------0--2--/2-0-----
a-----3------3---------------0-------3-2-
e----------------------------------------

e---------------------------
b--------------------1--0---
g--2-------------0-2------2-
d----------0-2-3------------
a----0-2-3------------------
e---------------------------
                               
                              *  
e--------------------------------------------------
b--------------------------------------------------
g-------------0-2-0--------------------------------
d-------0-2-3-------3-2-1-2-2--0-2-3-2-0---0h2p0---
a-0-2-3----------------------------------3-------3-
e--------------------------------------------------

  C   G  G  C
e-------------
b-1---3--3--1-
g-0---0--0--0-
d-2---0--0--2-
a-3---------3-  D.C. al Coda
e-------------

 * CODA      C  C  F  F  C
e---------------------------
b------------1--1--1--1--8--
g------------0--0--2--2--9--
d-1-2-3-2-0--2--2--3--3--10-
a------------3--3-----------
e---------------------------
                         \ /

Key:

\/ underneath tab = use wammy bar to bend down/up
 ____  ____
| 1   | 2   = play the first part the first time around then
              repeat but play the second part this time.
||.----.||
||------|| = repeat
||.----.||

* = Coda
D.C. al Coda = go back play the whole thing from the beginning
               then next time around dont play the * go straight 
               to the * CODA

I'd say that about does it. If you know any music theory the Coda 
stuff shouldn't be a problem to figure out. If you don't know music
theory then just listen to the song and you'll know what to do.
Comments