Ventures - Walk Dont Run Chords & Tabs

 

Walk Dont Run Chords & Tabs

Ventures Chords & Tabs

Version: 4 Type: Tab 1 rating
1 star 2 stars 3 stars 4 stars 5 stars
comments

Walk Dont Run Tab

   
any questions or comments or anyone with the solo send to,
blinkme_sk8er2001@hotmail.com

     A     G          F      E
----------------------------------
---------------------------1-0---
----2----------------0-2--------
-2-----------0-2-3-------------
------0-2-3---------------------
-------------------------------------
A                 G               F
------------------------------------
------------------------------------
-2---------------0-2-0------------
----------0-2-3---------3---------
---0-2-3---------------------------
-------------------------------------
   C          G                C   F C F
--------------------------------------
--------------------------------------
--------------------------------------
-2-1-2-2--0-2-3-2-0--------------
------------------------3------------
-------------------------------------


     A     G          F      E
----------------------------------
---------------------------1-0---
----2----------------0-2--------
-2-----------0-2-3-------------
------0-2-3---------------------
-------------------------------------

A                 G               F
------------------------------------
------------------------------------
-2---------------0-2-0------------
----------0-2-3---------3---------
---0-2-3---------------------------
-------------------------------------
[ Tab from: http://www.guitartabs.cc/tabs/v/ventures/walk_dont_run_tab_ver_4.html ]
   C          G                C   F C F
--------------------------------------
--------------------------------------
--------------------------------------
-2-1-2-2--0-2-3-2-0--------------
------------------------3------------
-------------------------------------


---------------------------------------
----------------------------------------
-----------------0-0-0--0-0-0-0-0-0-
----------0-2-3------------------------
---0-2-3-------------------------------
-3--------------------------------------

-------------------------------------------------------------------------
----------------------------------------------0--------0----1-----------
-2-2-2--2-2-2-2-2-2--2-----------2--------1--------1--------------
----------------------------3----------3-------2--------2-----2-0-----
------------------------------3----------3--------------------------3-2-
--------------------------------------------------------------------------

     A     G          F      E
----------------------------------
---------------------------1-0---
----2----------------0-2--------
-2-----------0-2-3-------------
------0-2-3---------------------
-------------------------------------

A                 G               F
------------------------------------
------------------------------------
-2---------------0-2-0------------
----------0-2-3---------3---------
---0-2-3---------------------------
-------------------------------------


   C          G                C   F C F
--------------------------------------
--------------------------------------
--------------------------------------
-2-1-2-2--0-2-3-2-0--------------
------------------------3------------
-------------------------------------

That’s not the whole song but I hoped it helped.
Comments