Ventures - Pipe Line Chords & Tabs

 

Pipe Line Chords & Tabs

Ventures Chords & Tabs

Version: 1 Type: Tab 0 ratings
1 star 2 stars 3 stars 4 stars 5 stars
comments

Pipe Line Tab

   
----------------------------------------------------------------------------
			     PIPE LINE - The Ventures
----------------------------------------------------------------------------
Tabbed by:Dillon Shines
Email:Fenderstrato89@yahoo.com


Tuning:eBGDAE
             intro                          "riff 1" 
e|---------------------------------|----------------------------------------
B|---------------------------------|----------------------------------------
G|---------------------------------|----------------------------------------
D|---------------------------------|----------------------------------------
A|---------------------------2-----|---2--2--2--2--2--2--2------------------
E|-14\ all the way down to --0-----|--0--3--0--3--0--3--0-------------------
(picking very fast all the way down)           

           "riff 2"
e|---------------------------------|
B|---------------------------------|
G|---------------------------------| do not play this after "riff 1", just 
D|--2--2--2--2--2--2--2------------| play it behind the "A part"
A|-o--3--0--3--0--3--0-------------|
E|---------------------------------|       
            
 
                    verse                          
e|--------------------------|---------------|-------------------------------
B|--------------------------|---------------|-------12----------------------
G|--------------------------|---------------|----12----14-12---------------
D|------0-2--0-2-4-2-0-2-4--|2-4-2-0-2-0----|-14------------------------
A|----2---------------------|------------2--|-----------------------------
E|--------------------------|---------------|-------------------------------
"E part", have a second guitarits or bassist play "riff 1" behind this part
[ Tab from: http://www.guitartabs.cc/tabs/v/ventures/pipe_line_tab.html ]
                   verse                           
e|------------------------|----------------|-------12-----------------------
B|------------------------|----------------|----13----13--------------------
G|-----0-2--0-2-4-2-0-2-4-|-2-4-2-0-2-0----|-14----------14-----------------
D|---2--------------------|-------------2--|--------------------------------
A|------------------------|----------------|--------------------------------
E|------------------------|----------------|--------------------------------
"A part", have a second guitarits or bassist play "riff 2" behind this part


e|--------------------------------------------------------------------------
B|--------------------------------------------------------------------------
G|-444444-555555-444444-555555-444444444--2---------------------------------
D|-444444-555555-444444-555555-444444444--2---------------------------------
A|-222222-333333-222222-333333-202020202--0---------------------------------
E|--------------------------------------------------------------------------
Back to intro (slide from 14) 

on second time through play this after the "A part"
e|-------|-------------------|-------------------|-------------------|
B|-------|-------5-----------|-------------------|-------------------|
G|-5-----|-----5---7-5-4-----|-----4-7-5-4-------|-------5-4---5-----|
D|---7-7-|-7-7-----------5-5-|-5-5---------7-----|-----7-----7---7-7-| X 2
A|-------|-------------------|---------------8-8-|-8-8---------------|
E|-------|-------------------|-------------------|-------------------|

~~~~~Once you listen to the song a couple of times youll get a hang of the
order~~~~~~~~~~~~~~~~~~~~~~~~~~~~~~~~~~~~~~~~~~~~~~~~~~~~~~~~~~~~~~~~~~~~~-

| /  slide up
| \  slide down
| h  hammer-on
| p  pull-off
| ~  vibrato
| +  harmonic
| x  Mute note
===============================================================================
Comments