Ventures - Pipe Line Chords & Tabs

 

Pipe Line Chords & Tabs

Ventures Chords & Tabs

Version: 1 Type: Bass Tab 0 ratings
1 star 2 stars 3 stars 4 stars 5 stars
comments

Pipe Line Bass Tab

   
pipeline
multiple artists
ventures did it.

My school band did this song is a closing year concert.

not actually played by bass player, but slide down into song from A to an open E. to 
the open E, pull on the string and let it go as your sliding down.

into
G---------------|
D---------------|
A---------------|
E--15\----0-----|

verse- two ways

just the bass player's part-even beats. repeat as many times necessary.
G----------------------------|
D----------------------------|
A---2--2--2--2--2--2--2--2---|
E--0--3--0--3--0--3--0--3----|

then goes up to
G----------------------------|
D---2--2--2--2--2--2--2--2---|
A--0--3--0--3--0--3--0--3----|
E----------------------------|
[ Tab from: http://www.guitartabs.cc/tabs/v/ventures/pipe_line_btab.html ]
the guitarist's way.
G--------------------------------------------|
D--------------------------------------------|
A----0--2--0-2-4-2-0-2-4--2-4-2--0-2-0-------|
E-2-------------------------------------2----|

then play higher as with the bass player's way
G-------------------------------------------|
D----0--2--0--2-4-0-2-4--2-4-2--0-2-0-------|
A-2------------------------------------2----|
E-------------------------------------------|

chorus
G---------------------------------------------------------------------------------|
D---------------------------------------------------------------------------------|
A-2--2--2-2-2-3--3--3-3-3-2--2--2-2-2-3--3--3-3-3-2--2--2-2-2-2--2--2-2-2-0-------|
E---------------------------------------------------------------------------------|

there are other parts of the song in different chords. they are in order, just listen. all are in four.

Em
G
F
G
Am
G
F
Em

goes back to the others.

a good beach song to know.
Comments