Ventures - Out Of Limits Chords & Tabs

 

Out Of Limits Chords & Tabs

Ventures Chords & Tabs

Version: 1 Type: Tab 1 rating
1 star 2 stars 3 stars 4 stars 5 stars
comments

Out Of Limits Tab

   
The Ventures - Out of Limits
Tabbed by springwaffle

e----15-16-15----15-16-15----15-16-15----15-16-15-
b-17----------17----------17----------17----------
g-------------------------------------------------
d-------------------------------------------------
a-------------------------------------------------
e-------------------------------------------------
 Guitar 1 continues playing that while Guitar 2 plays:
 
  E    G    A    B      E  G  A  B x3
e---------------------|--------------|
b---------------------|--------------|
g---------------------|--------------|
d-2----5----7----9----|-2--5--7--9---|
a-2----5----7----9----|-2--5--7--9---|
e-0----3----5----7----|-0--3--5--7---|

e---------------------------------
b---------------------------------
g---------------------------------
d----5-7-5-7b-7-5-7b-7-5-77-5---5- x3
a-/7--------------------------7---
e---------------------------------
  
  G  G G G  G G G  B  B B B  B B B
e----------------------------------
b----------------------------------
g----------------------------------
d-5--5-5-5--5-5-5--9--9-9-9--9-9-9-
a-5--5-5-5--5-5-5--9--9-9-9--9-9-9-
e-3--3-3-3--3-3-3--7--7-7-7--7-7-7-
 Then Guitar 1 plays some lead part I don't know while Guitar 2 plays:
[ Tab from: http://www.guitartabs.cc/tabs/v/ventures/out_of_limits_tab.html ]
  E  G  A  B x3 G  G G G  G G G  B  B B B  B B B
e-------------|----------------------------------
b-------------|----------------------------------
g-------------|---------------------------------- 
d-2--5--7--9--|-5--5-5-5--5-5-5--9--9-9-9--9-9-9-
a-2--5--7--9--|-5--5-5-5--5-5-5--9--9-9-9--9-9-9-
e-0--3--5--7--|-3--3-3-3--3-3-3--7--7-7-7--7-7-7-

e-5-5-2-5-2--5-5-2-5-2--7-7-3-7--7-9--7-9--10-9-
b-----------------------------------------------
g-----------------------------------------------
d-----------------------------------------------
a-----------------------------------------------
e-----------------------------------------------

e-6-6-3-6-3--6-6-3-6-3--8-8-4-8--8-10--10-8--8-8-
b------------------------------------------------
g------------------------------------------------
d------------------------------------------------
a------------------------------------------------
e------------------------------------------------

Move everything up to F.

  F    G#   A#   C      F  G# A# C x3  G#.............  C.....................
e---------------------|--------------|-----------------------------------------
b---------------------|--------------|-----------------------------------------
g---------------------|--------------|-----------------------------------------
d-3----6----8----10---|-3--6--8--10--|-6--6-6-6--6-6-6--10--10-10-10--10-10-10-
a-3----6----8----10---|-3--6--8--10--|-6--6-6-6--6-6-6--10--10-10-10--10-10-10-
e-1----4----6-----8---|-1--4--6--8---|-4--4-4-4--4-4-4---8---8--8--8---8--8--8-

  F
e----17-16-17----17-16-17----17-16-17----17-16-17-
b-18----------18----------18----------18----------
g-------------------------------------------------
d------------------------------------------------- fade
a-------------------------------------------------
e-------------------------------------------------
Comments