Ventures - La Bamba Chords & Tabs

 

La Bamba Chords & Tabs

Ventures Chords & Tabs

Version: 1 Type: Tab 2 ratings
1 star 2 stars 3 stars 4 stars 5 stars
comments

La Bamba Tab

La Bamba - The Ventures
Tabbed by springwaffle
                                       x3
e-------|--------------------------------|---------------
b-------|*------------------------------*|---------------
g-------|------------2-0-----------------|-----------2-0-
d-------|-----2---3-----------0-3-3-2-0--|----2---3------
a---0-2-|*-3----3-----------2-----------*|-3----3--------
e-3-----|-----------------3--------------|---------------

e|--1--1--1--1-1-0-----|-----------------1-1-0---0------|--------
b|*-0--0--0--0-0----1-*|*-1---1-3------3-------3---3-1-*|-1----0-
g|--0--0--0--0-0-------|----2------0-2------------------|---2--0-
d|---------------------|--------------------------------|--------
a|*-------------------*|*------------------------------*|--------
e|---------------------|--------------------------------|--------

e|--1--1--1--1-1-0-----|----------------1-1-0---0--------------
b|*-0--0--0--0-0----1-*|-1---1-3------3-------3---3-1-1-----0w-
g|--0--0--0--0-0-------|---2------0-2--------------------2--0w-
d|---------------------|---------------------------------------
a|*-------------------*|---------------------------------------
e|---------------------|---------------------------------------

e--------------------|----------------------|----------------
b--------------------|*-17----------15-----*|----------------
g-17----14----16-----|--------17------------|-17----14-------
d-----------------17-|------------------17--|-------------17-
a--------------------|*--------------------*|----------------
e--------------------|----------------------|----------------

e-------|--------------------------------------------
b-------|--------------------------------------------
g-------|--------------------------------------------
d-------|--------0--4-2--------0-0------------0--4-2-
a-------|-0--4-0-------------2-----4-2-0--4-0--------
e-0-2-4-|----------------0-4-------------------------
[ Tab from: http://www.guitartabs.cc/tabs/v/ventures/la_bamba_tab.html ]
e|--10--10--10--10-10-9-----|-----------------------10-10-9----9--------|---------
b|*--9---9---9---9--9---10-*|*-10----10-12-------12---------12---12-10-*|-10----9-
g|---9---9---9---9--9-------|-----11--------9-11------------------------|----11-9-
d|--------------------------|-------------------------------------------|---------
a|*------------------------*|*-----------------------------------------*|---------
e|--------------------------|-------------------------------------------|---------

e|--10--10--10--10-10-9-----|----------------------10-10-9----9-----------------
b|*--9---9---9---9--9---10-*|-10----10-12-------12---------12---12-10-10-----9w-
g|---9---9---9---9--9-------|----11--------9-11--------------------------11--9w-
d|--------------------------|---------------------------------------------------
a|*------------------------*|---------------------------------------------------
e|--------------------------|---------------------------------------------------

e--------------------|----------------------|----------------
b--------------------|*-14-----------------*|----------------
g-14----------13-----|--------14----16------|-14-------------
d-------16--------14-|------------------14--|-------16----14-
a--------------------|*--------------------*|----------------
e--------------------|----------------------|----------------

e-------|--------------------------------|
b-------|*------------------------------*|
g-------|------------2-0-----------------|
d-------|-----2---3-----------0-3-3-2-0--|
a---0-2-|*-3----3-----------2-----------*|
e-3-----|-----------------3--------------|

e|----------------------------------------------------|
b|*---------------------------17---------15----------*| fade
g|--17----14----16--------------------------17-14-----|
d|------------------17----------------------------17--|
a|*--------------------------------------------------*|
e|----------------------------------------------------|

w = bend with whammy bar

Corrections/comments/etc. can be sent to: springwaffle@comcast.net
Comments