Ventures - Jokers Wild Chords & Tabs

 

Jokers Wild Chords & Tabs

Ventures Chords & Tabs

Version: 1 Type: Tab 1 rating
1 star 2 stars 3 stars 4 stars 5 stars
comments

Jokers Wild Tab

   
Song: Joker's Wild
Band: The Ventures
Tabbed by: SpRiNgWaFfLe [springwaffle@comcast.net]

e---------------------
b---------------------
g---------------------
d---------------------
a-0-----0-----0-------
e----1-----1-----1--0-

e-----------------------------------------------------
b-----------------------------------------------------
g------------------------------------------0--0---0---
d---------------------------------3--3---3------0---2- x2
a-0-2-2-0-3-3-0-2-2-0-3-3-0-2-2-0------3--------------
e-----------------------------------------------------

e------------------------
b------------------------
g------------------------
d-2---------------------- x2
a----3--0------2---3---3-
e---------1-0----1---1---

e---------------------------
b---------------------------
g---------------------------
d-2-------------------------
a----3--0------2---3---3--0-
e---------1-0----1---1------

e-0000-0-0-1111-1-1-
b-1111-1-1-1111-1-1-
g-2222-2-2-2222-2-2-
d------------------- x2
a-------------------
e-------------------

e-----------------------------------------------------
b-----------------------------------------------------
g------------------------------------------0--0---0---
d---------------------------------3--3---3------0---2- x2
a-0-2-2-0-3-3-0-2-2-0-3-3-0-2-2-0------3--------------
e-----------------------------------------------------

e------------------------
b------------------------
g------------------------
d-2---------------------- x2
a----3--0------2---3---3-
e---------1-0----1---1---

e---------------------------
b---------------------------
g---------------------------
d-2-------------------------
a----3--0------2---3---3--0-
e---------1-0----1---1------
[ Tab from: http://www.guitartabs.cc/tabs/v/ventures/jokers_wild_tab.html ]
e-5555-5-5-6666-6-6-
b-6666-6-6-6666-6-6-
g-7777-7-7-7777-7-7-
d-------------------
a-------------------
e-------------------

e-----------------------------------------------------
b------------------------------------------1--1---1---
g---------------------------------3--3---3------0---2- x2
d-0-2-2-0-3-3-0-2-2-0-3-3-0-2-2-0------3--------------
a-----------------------------------------------------
e-----------------------------------------------------

e------------------------
g------------------------
g-2---------------------- 
d----3--0------2---3---3- x3
a---------1-0----1---1---
e------------------------

e-11-1-1-1-1-1-1--0-00-0-0-0-0-0-0-
b-33-3-3-3-3-3-3--1-11-1-1-1-1-1-1-
g-22-2-2-2-2-2-2--0-00-0-0-0-0-0-0-
d----------------------------------
a----------------------------------
e----------------------------------

e-0000-0-0-1111-1-1-
b-1111-1-1-1111-1-1-
g-2222-2-2-2222-2-2-
d------------------- x2
a-------------------
e-------------------

e-----------------------------------------------------
b-----------------------------------------------------
g------------------------------------------0--0---0---
d---------------------------------3--3---3------0---2- x2
a-0-2-2-0-3-3-0-2-2-0-3-3-0-2-2-0------3--------------
e-----------------------------------------------------

e------------------------
b------------------------
g------------------------
d-2---------------------- x2
a----3--0------2---3---3-
e---------1-0----1---1---

e---------------------------
b---------------------------
g---------------------------
d-2-------------------------
a----3--0------2---3---3--0-
e---------1-0----1---1------

 
e-0000-0-0-1111-1-1-
b-1111-1-1-1111-1-1-
g-2222-2-2-2222-2-2-
d------------------- fade
a-------------------
e-------------------
Comments