Ventures - He Never Came Back Chords & Tabs

 

He Never Came Back Chords & Tabs

Ventures Chords & Tabs

Version: 1 Type: Tab 1 rating
1 star 2 stars 3 stars 4 stars 5 stars
comments

He Never Came Back Tab

   
He Never Came Back - The Ventures
Tabbed by springwaffle

e----------------------------------------0----------------------------
b---------------------------------------------------------------------
g-------------------------------------------3p2---0-------------------
d-----0------------------0----------------------2---2---------0-------
a-0-2------------0---/2-----2p0---0---------------------0-0-2---2p0---
e-------0---0-3----3------------3---3-0-----------------------------3-

e-----------------------------------7-------------
b---------------------------------7---------------
g-------------------------------------9b-8---8----
d------------------0---2-0-----------------9---9--
a----------0---/2----2-----2-0-2------------------
e-0---0-3----3------------------------------------

e----------------------------------------------------------------------
b-------0--------------------------------------------------------------
g---0-2---2-1---2-0----------------------------------------------------
d-2-----------2-----2-0------------------------------------------------
a-----------------------2-0-----0-------0--0---0--0---0--0---0---0-1-2-
e---------------------------3-0---3-0-3------3------3------3---3-------

e--------------------0----------------
b--------------------0----------------
g-----------------------3p2---0---0---
d-----0---------------------2---2---2-
a-0-2---2p0---0-----------------------
e-----------3---3-0-------------------

e-------------------------------------------12----------------------------
b----------------------------------------12-------------------------------
g-----------------------------------------------15p14p12-----2b-0---------
d-----0------------------0-------------------------------14-------2-------
a-0-2------------0---/2-----2p0---0---------------------------------2p0---
e-------0---0-3----3------------3---3-0---------------------------------3-

e---------------------------------------12b-12-10-----------------
b------------------------------------12-----------12--------------
g---------------------------------11------------------12----------
d------------------0---2-0-------------------------------14-12----
a----------0---/2----2-----2-0-2-------------------------------14-
e-0---0-3----3----------------------------------------------------
[ Tab from: http://www.guitartabs.cc/tabs/v/ventures/he_never_came_back_tab.html ]
e--------------------------------------------------------------------
b-----0--------------------------------------------------------------
g-0-2---2-1---2-0----------------------------------------------------
d-----------2-----2-0------------------------------------------------
a---------------------2-0-----0-------0--0---0--0---0--0---0---0-1-2-
e-------------------------3-0---3-0-3------3------3------3---3-------

e--------------------0----------------
b--------------------0----------------
g-----------------------3p2---0---0---
d-----0---------------------2---2---2-
a-0-2---2p0---0-----------------------
e-----------3---3-0-------------------

e-----------3--3-3---3--3--3-3-3-3---10---9-10---10--10---9-10--9-10-
b-----------5--3-5---5--5--3-5-3-5---12--10-12---12--12--10-12-10-12-
g--------------------------------------------------------------------
d--------------------------------------------------------------------
a-------0------------------------------------------------------------
e-0-3-4---3----------------------------------------------------------

e-3--3-3---3--3--3-3---5--5--5-4---5--5--5--5-
b-5--3-5---5--5--3-5---7--7--7-----7--7--7--7-
g---------------------------------------------
d---------------------------------------------
a---------------------------------------------
e---------------------------------------------

e---------------------------------------------------
b----------------------------------0w---------------
g--------------------------------------0------------
d------------------0---------------------2--------0-
a----------0---/2-----2p0---0-----------------0-2---
e-0---0-3----3------------3---3-0-------------------

e-----------------------------------2bw-
b---------------------------------------
g---------------------------------------
d------------------0---2-0--------------
a----------0---/2----2-----2-0-2--------
e-0---0-3----3--------------------------

e----------------------------------------------------------------------
b-------0--------------------------------------------------------------
g---0-2---2-1---2-0----------------------------------------------------
d-2-----------2-----2-0------------------------------------------------
a-----------------------2-0-----0-------0--0---0--0---0--0---0---0-1-2-
e---------------------------3-0---3-0-3------3------3------3---3-------

                  Em   D  Em   D  E
e-----------------0----2--0----2--0----
b-----------------0----3--0----3--0----
g-----------------0----2--0----2--1----
d-----0-----------2----0--2----0--2----
a-0-2---2p0---0---2-------2-------2----
e-----------3---3-0-------0-------0----

Key:
p = pull off
b = bend
w = bend with whammy bar
bw = bend and then go at it with the whammy bar

Corrections/comments/etc. can be sent to: springwaffle@comcast.net
Comments