Ventures - Gully Ver Chords & Tabs

 

Gully Ver Chords & Tabs

Ventures Chords & Tabs

Version: 1 Type: Tab 1 rating
1 star 2 stars 3 stars 4 stars 5 stars
comments

Gully Ver Tab

Gully-ver - The Ventures
Tabbed by springwaffle

e-----------------------------------------5------------5----------------------5-
b-----------------------------------------5------------5------------5---------5-
g-------------------------------------5-7----7-5-7-5-7----8-7-5-----5---7-5-7---
d---------------------------------------------------------------7-7---7---------
a-------0----------0---------------0--------------------------------------------
e-0-3-4------0-3-4------12\-0--3b-----------------------------------------------

e--------------5------------5----------------------
b--------------5------------5-----------5--6-5-----
g----------5-7----7-5-7-5-7----8-7-5----5--7-5-----
d------------------------------------7-----------7-
a-------0------------------------------------------
e-0-3-4--------------------------------------------
[ Tab from: http://www.guitartabs.cc/tabs/v/ventures/gully_ver_tab.html ]
e-----------|--------5--------------5----------------------5-
b-----------|*-------5--------------5------------5---------5-
g-----------|----5-7----7-5-(7)-5-7----8-7-5-----5---7-5-7---
d-----------|--------------------------------7-7---7---------
a-----------|*-0---------------------------------------------
e-12\-0--3b-|------------------------------------------------
                                                  
e--------------5------------5----------------------
b--------------5------------5-----------5--6-5-----
g----------5-7----7-5-7-5-7----8-7-5----5--7-5----- To Coda
d------------------------------------7-----------7-
a-------0------------------------------------------
e-0-3-4--------------------------------------------

e---------------5--5--5---5--5-6-5-------5b--5----------5b--5---------
b---------------5--6--6-8-6--------8-6-8-5b--5----------5b--5---------
g-----------------------------------------------7-5---5-------7-5---5-
d------------0--------------------------------------7-------------7---
a-12\-0--3b-----------------------------------------------------------
e---------------------------------------------------------------------

e-5--5---5------5--5-6-5-------------------------5-5-5-5--------|
b-6--6-8-6--6-8----------8-6-8-5-55-5-5-6-6-6-6--5-5-6-5-------*|
g--------------------------------------------------------7-5-4--| repeat twice
d---------------------------------------------------------------| second time
a--------------------------------------------------------------*| go to coda
e---------------------------------------------------------------|

 Coda
e----------------------------
b----------------------------
g----------------------------
d----------------------------
a-12\-0~~~~12\-0~~~~12\-0~~~~
e----------------------------
         fading..............
Key:
~ = vibrato, use whammy bar
(7) = ghost note, not played last time

Corrections/comments/etc. can be sent to: springwaffle@comcast.net
Comments