Ventures - Ghost Riders In The Sky Chords & Tabs

 

Ghost Riders In The Sky Chords & Tabs

Ventures Chords & Tabs

Version: 1 Type: Tab 3 ratings
1 star 2 stars 3 stars 4 stars 5 stars
comments

Ghost Riders In The Sky Tab

The Ventures - (Ghost) Riders in the Sky
Tabbed by springwaffle

e----------------------------------------------------------
b----------------------------------------------------------
g----------------------------------------------------------
d----------------------------------------------0-2-2-2---2-
a---0-0-0-2-3-3-3-0--------------0-0-0-2-3-3-3---------3---
e-0-----------------3-3-3-0-3--0---------------------------
[ Tab from: http://www.guitartabs.cc/tabs/v/ventures/ghost_riders_in_the_sky_tab.html ]
e------------------------------------------------------------
b------------------------------------------------------------
g-----2-2--2-2-----------------------------------------------
d-2-2----------2-2--2-2-2-2----------------------------------
a---------------------------3-0------------3-3-3--/3-0-0---0-
e--------------------------------3-1-1-1-1---------------3---

e-0-0-0-0---5-5-5-5-0------------------
b-1-1-1-1---5-5-5-5-1------------------
g-2-2-2-0---5-5-5-5-2------------------
d-2-2-2-2-----------2------------------
a-0-0-0-3-----------0---------3--3-0---
e-----------------------3-1-1----------

e-------------------------
b-------------------------
g-------------------------
d-------------------------
a-0-7-7---7-7-0-7-7---7-7-
e-------0-----------0-----

Those all all the parts. I'm sure you can figure out when
to play what. At one point it changes and you play the first
two parts up 3 half steps (ie. start at 3 on E instead of 0)
Comments