Ventures - Cruncher Chords & Tabs

 

Cruncher Chords & Tabs

Ventures Chords & Tabs

Version: 1 Type: Tab 1 rating
1 star 2 stars 3 stars 4 stars 5 stars
comments

Cruncher Tab

   
Cruncher - The Ventures
Tabbed by springwaffle

Part One:
e-------------------------------------------------------------------------------
b-------------------------------------------------------------------------------
g-------------------------------------------------------------------------------
d------------------------------------------------------/2----2--1---------------
a-0-1----0----0-1----0----0-1--0--1--0--1-0-1-0-1-0-1-1------------4----4--2--0-
e-------------------------------------------------------------------------------

e---------------------------------------------------------------
b---------------------------------------------------------------
g---------------------------------------------------------------
d---------------/2----2--1--------------------------------------
a-0--1--2-------------------4----4--2--0----0--1--2-------------
e------------2b---------------------------------------2b--2b--0-

*Drum solo*
[ Tab from: http://www.guitartabs.cc/tabs/v/ventures/cruncher_tab.html ]
Part Two:
e-----------------------------------
b-----------------------------------
g-----------------------------------
d-2---0-----------------0-2-0-------
a---------4---2---0-2-4-------4-2-0-
e-----------------------------------

*Drum solo*

Part Three:
e-----------------------------------------------------------------------------------
b-----------------------------------------------------------------------------------
g-----------------------------------------------------------------------------------
d------------------------------------------------------/2------2--1-----------------
a-0-1----0----0-1----0----0-1--0--1--0--1-0-1-0-1-0-1-1-----0--------4---0--4--2--0-
e-----------------------------------------------------------------------------------

e--------------------------------------------------------------------------
b--------------------------------------------------------------------------
g--------------------------------------------------------------------------
d--------------------/2------2--1------------------------------------------
a----0--4--2--------------0--------4---0--4--2--0------0--4--2-------------
e-0------------0--2b--------------------------------0------------2b--2b--0-

/ = slide
b = bend

Corrections/comments/etc. can be sent to: springwaffle@comcast.net
Comments