Ventures - Apache Chords & Tabs

 

Apache Chords & Tabs

Ventures Chords & Tabs

Version: 1 Type: Tab 1 rating
1 star 2 stars 3 stars 4 stars 5 stars
comments

Apache Tab

The Ventures - Apache
Tabbed by springwaffle

 Intro
e-----------------------17-15-12-
b----13-15b16r15-----13----------
g-14--------------14-------------
d--------------------------------
a--------------------------------
e--------------------------------
 
 Riff 1
e------------------------8-10b11r10--8-10-8----
b---------------------10--------------------10-
g----------------------------------------------
d-2-/7-\2/7\4-\2-0-2---------------------------
a----------------------------------------------
e----------------------------------------------
 
 Riff 1b
e------------------------13-15b16r15--13-15-13----
b---------------------15-----------------------15-
g-2-/7-\2/7\4-\2-0-2------------------------------
d-------------------------------------------------
a-------------------------------------------------
e-------------------------------------------------

 Riff 2
  e s s e s s e s s e s s e s s e s s e s s e e h w.
e---------------------------------------------------
b---------------------------------------------------
g-------------------------------------------------2-
d-------------------------------------------------2-
a---8-8-8-------8-8-8-------8-8-8-------8-8-8-8-7\0-
e-8-------8-8-8-------8-8-8-------8-8-8-------------
[ Tab from: http://www.guitartabs.cc/tabs/v/ventures/apache_tab.html ]
 Riff 3                              Riff 3b
e--------------0--------12-10-8----|----------------12-10-8-6-3-----------
b-----1-0--1-3---3-1------------10-|-----1-0--1-3---------------5-3-------
g---2----------------2-------------|---2----------0-----------------5-3-2-
d-3--------------------------------|-3------------------------------------
a----------------------------------|--------------------------------------
e----------------------------------|--------------------------------------
 
 Riff 4                                                                         
       ....................                           ....................
e|-----17----17-14-----------|-------------------|----17----17-14----------
b|*-17----17-------17-15-17-*|---3----3-0--------|-17----17-------17-15-17-
g|---------------------------|-2----2------2-0-2-|-------------------------
d|---------------------------|-------------------|-------------------------
a|*-------------------------*|-------------------|-------------------------
e|---------------------------|-------------------|-------------------------
       those dots mean to play those notes very stacatto and many times 
       more than it shows, if you've heard the song you know what i mean

The letters above riff 2 are the timing: e = eighth note; s = sixteenth note;
h = half note; w = whole note. The . is there on purpose. Hold the A 
chord for 6 beats.

Intro x2
Riff 1 x2
Riff 1b
Riff 1
Riff 2 x2
Riff 3
Riff 3b
Riff 3
Riff 2 x2
Riff 4
Riff 3
Riff 3b
Riff 3
Riff 2 x2
Intro x? fade
Comments