Venom - Leviathan Chords & Tabs

 

Leviathan Chords & Tabs

Venom Chords & Tabs

Version: 1 Type: Tab 0 ratings
1 star 2 stars 3 stars 4 stars 5 stars
comments

Leviathan Tab

   
                      VENOM - LEVIATHAN
                     From the Album RESURRECTION
              Copyright (2000 - SPV RECORDS)
                     Version 1.0 - (2001 - MAY)

Transcribed by: RENE	

For Questions, Comments, Newest Version, or Corrections contact
(YOUR NAME): at PANZERKILL@YAHOO.DK

Check Out Death Warp, With More Transcriptions On It:
 http://www.wam.umd.edu/~ekubica

..  - palm mute          /  - slide up to
 \  - slide down to      ~  - vibrato
 h  - hammer on          b  - bend
 p  - pull off            Suffixes for bend
                          ph - pinch harmonic
                           f - full bend    h - half bend
*  - see comment           r - release      t - tap bend
X  - percussion mute       ~ - vibrato bend
@  - slight palm mute     () - ghost note, sustained note

Tune Gtr to C#

[ Tab from: http://www.guitartabs.cc/tabs/v/venom/leviathan_tab.html ]
Riff A
|-----------------------------------------------------------------|
|-----------------------------------------------------------------|
|-----------------------------------------------------------------| 
|--9-9\10-10/9-9/7-7\9-9\10-10/9-9/7-9---10/9-9/7-7\9-9-----------| 
|--7-7\8--8-/7-7/5-5\7-7\8--8-/7-7/5-7---8-/7-7/5-5\7-7--8--7--5--|
|--------------------------------------0-----------------6--5--3--|

Riff B                                                                    
|--------------------------|
|--------------------------|
|--------------------------| 
|--------------------------| 
|--3p2-2-2-2-2--3p2-2-2-2--|
|--1p0-0-0-0-0--1p0-0-0-0--|

Riff C
|--------------------------|
|--------------------------|
|--9----7------------------|
|--9----7----5----7--------| 
|--7----5----5----7--------|
|------------3----5--5-3~--|
                                                     
Riff D               
|------------------------|
|------------------------|
|------------------------|
|--9-----7------------2--| 
|--7--9--5--7--3-3-3--2--|
|-----7-----5--1-1-1--0--|

Riff E
|-----------------------------------|
|-----------------------------------|
|------9----------------------------|
|----9---9-----5-----7--------9-----|
|--7---------5-----7---7----9---9---|
|----------3-----5--------7---------|

Riff F
|-------------------------------------|
|-------------------------------------|
|--------9-----------9----------------|
|------9---9-------9---9--------------|
|----7-------7---7-------7---7---7----|
|--0-----------0-----------0---0------|
second gtr plays E5 chords
Comments