Venom - Black Metal Chords & Tabs

 

Black Metal Chords & Tabs

Venom Chords & Tabs

Version: 2 Type: Tab 0 ratings
1 star 2 stars 3 stars 4 stars 5 stars
comments

Black Metal Tab

   
VENOM

" Black Metal " 

album: Black Metal	
year: 1982
guitar: "Mantas"

translated by Michiel, submitted january 2005

MORE TABS (Voi Vod, Megadeth, Peter Pan Speedrock, 
Motörhead, Rollins Band and more..):

   http://home.hccnet.nl/michiels.gitaarparadijs/


tune down all strings
one and a half step


explanation signs:

7p5	= pull-off
	= slide down
x	= percussionstrike
>7	= give accent
R	= rest

INTRO

percussion

RIFF A VERSE

E -------------------------------|-------------------------------|
B -------------------------------|-------------------------------|
G -------------------------------|-------------------------------|
D ->5----------------------------|->4----------------------------|
A ->3--0-0-0-0-0-0-0-0-0-0-0-0-0-|->2--0-0-0-0-0-0-0-0-0-0-0-0-0-|		
E -------------------------------|-------------------------------|

E -------------------------------|----------------------------|
B -------------------------------|----------------------------|
G -------------------------------|---------------->9-->9-->9--|		    
D ->3----------------------------|---------------->9-->9-->9--|
A ->1--0-0-0-0-0-0-0-0-0-0-0-0-0-|-5--2----------->7-->7-->7--|		
E -------------------------------|-3--0--0-0-0-0--------------|

note: mute all open single A and E tones slightly

RIFF B BRIDGE

E -------------------------------|-------------------------------|	
B -------------------------------|-------------------------------|	
G -------------------------------|->4----------------------------|			    
D ->7----------------------------|->4----------------------------|			    
A ->5--2-2-2-2-2-2-2-2-2-2-2-2-2-|-----2-2-2-2-2-2-2-2-2-2-2-2-2-|
E -------------------------------|-------------------------------|

E -------------------------------|-------------------------|	
B -------------------------------|-------------------------|	
G ->4----------------------------|->7--->4----------------|			    
D ->4----------------------------|->7--->4----2---4---2---|			    
A -----2-2-2-2-2-2-2-2-2-2-2-2-2-|-------------0---2---0---|	
E -------------------------------|-------------------------|

note: mute all single B tones (2nd fret A string) slightly

RIFF C CHORUS

E -------------------------------|-------------------------|
B -------------------------------|-------------------------|
G -------------------------------|-4-----------------------|
D ->2----------------------------|-5-----------------------|
A ->0--0-0-0-0-0-0-0-0-0-0-0-0-0-|----------------------0--|	
E -------------------------------|-------------------------|

E -------------------------|-----------------------|
B -------------------------|-----------------------|
G -5--------------------x--|-6----x---7-----x---6--|
D -5--------------------x--|-5----x---7-----x---5--|
A -------------------------|-----------------------|
E -------------------------|-----------------------|

note: mute all open single A tones slightly

FINISHING CHORUS
[ Tab from: http://www.guitartabs.cc/tabs/v/venom/black_metal_tab_ver_2.html ]
E ------------------------------|-----------------------------|
B ------------------------------|-----------------------------|
G ------------------------------|-----------------------------|
D -2----------------------------|-2------2------2------2------|
A -0--0-0-0-0-0-0-0-0-0-0-0-0-0-|-0--0-0-0--0-0-0--0-0-0--0-0-|		
E ------------------------------|-----------------------------|

note: mute all open single A tones slightly

BREAK A

E --------------------------|
B --------------------------|
G --------------------------|
D ->2--R--------------------|
A ->2--R--------------------|
E ->0--R----------------12-|


BREAK B

E --------------------------|--------------------------|
B --------------------------|--------------------------|
G --------------------------|--------------------------|
D ->2--R----------------4---|->5--R----------------5---|
A ->2--R----------------4---|->5--R----------------5---|
E ->0--R----------------2---|->3--R----------------3---|

E --------------------------|--------------------------|
B --------------------------|--------------------------|
G ----------------------7---|->9--R--------------------|
D ->7--R----------------7---|->9--R--------------------|
A ->7--R--------------------|->7--R--------------------|
E ->5--R--------------------|----------------------12-|

INTERLUDE

E --------------------------------|--------------------------------|
B --------------------------------|--------------------------------|
G --------------------------------|--------------------------------|
D ->4-----------------------------|----------------->2-->2-->3-->4-|
A ->2--2-2-2-2-2-2-2-2-2-2-2-etc.-|-2-2-2-2-2-2-2-2->0-->0-->1-->2-|	
E --------------------------------|--------------------------------|

E --------------------------------|--------------------------------|
B --------------------------------|--------------------------------|
G -----------------------------9--|-7------------------------------|
D ->4--------------------------9--|-7------------------------------|
A ->2--2-2-2-2-2-2-2-2-2-2-etc.---|-5------------------------------|	
E --------------------------------|--------------------------------|

note 1: mute all single B tones (2nd fret A string) slightly

		1.2.3.4. time		5. time

E -----------------------------|------------------------------|
B -----------------------------|------------------------------|	
G -----------------------------|------------------------------|				    
D -------------------------5---|-4----------------------------|				    
A -5p3p0-5p3p0-5p3p0-5p3p0-3-3-|-2-----2-2-2-2-2-2-2-2-2-etc.-|								
E -----------------------------|------------------------------|

		6.7.8.9. time		10. time

E -----------------------------|------------------------------|
B -----------------------------|------------------------------|	
G -----------------------------|-9--9-9-----------------------|				    
D -------------------------5---|-9--9-9-----------------------|			    
A -5p3p0-5p3p0-5p3p0-5p3p0-3-3-|-7--7-7--7-7-7-7-7-7-7-7-etc.-|							
E -----------------------------|------------------------------|

note 2: mute all single E tones (7nd fret A string) slightly

END

E --------------------------|--------------------------|
B --------------------------|--------------------------|
G --------------------------|--------------------------|
D -R--------------------5---|->7--R--------------------|
A -R--------------------5---|->7--R--------------------|
E -R--------------------3---|->5--R--------------------|
Comments