Vennaskond - Subatlantiline Kohtumine Chords & Tabs

 

Subatlantiline Kohtumine Chords & Tabs

Vennaskond Chords & Tabs

Version: 1 Type: Tab 0 ratings
1 star 2 stars 3 stars 4 stars 5 stars
comments

Subatlantiline Kohtumine Tab

Song: Subatlantiline Kohtumine 
Artist: Vennaskond
Tabbed by: Jeff Kingsbury

Official Website: http://www.vennaskond.com/

Estonian punk band.

Intro (After bass intro) (Riff A)
e---------------------------------------------------------------------|
B---------------------------------------------------------------------|
G-----------5-5--------------------5--5-5-5-x--7-7-------------9-9-9--|
D--2--2-2-2-5-5-0-5--5-5-5-x-4-4-0-5--5-5-5-x--7-7-0-2--2-2-2--9-9-9--| X2
A--2--2-2-2-3-3-0-5--5-5-5-x-4-4-0-3--3-3-3-x--5-5-0-2--2-2-2--7-7-7--|
E--0--0-0-0-----0-3--3-3-3-x-2-2-0-----------------0-0--0-0-0---------|



Part after Intro (Riff B)
e---------------------------------------------------------------------|
B---------------------------------------------------------------------|
G-------------------5--5-5-5------------------------------------------|
D--7--7-7-7-x-5-5-0-5--5-5-5--2-2-------------------------------------| X3
A--7--7-7-7-x-5-5-0-3--3-3-3--2-2-------------------------------------|
E--5--5-5-5-x-3-3-0-----------0-0-------------------------------------|


After third time, play this:
e---------------------------------------------------------------------|
B---------------------------------------------------------------------|
G---------------------------------------------------------------------|
D--7--7-7-7-0--5-5-0--7-7-7-7-7-7-7-7---------------------------------|
A--7--7-7-7-0--5-5-0--7-7-7-7-7-7-7-7---------------------------------|
E--5--5-5-5-0--3-3-0--5-5-5-5-5-5-5-5---------------------------------|

[ Tab from: http://www.guitartabs.cc/tabs/v/vennaskond/subatlantiline_kohtumine_tab.html ]
After that, there's this, then play Riff A for the verse
e---------------------------------------------------------------------|
B---------------------------------------------------------------------|
G---------------------------------------------------------------------|
D--2--2-2-2-x-2-2-2-2--2-2-2-x----------------------------------------|
A--2--2-2-2-x-2-2-2-2--2-2-2-x----------------------------------------|
E--0--0-0-0-x-0-0-0-0--0-0-0-x----------------------------------------|

The part right after the verse is the same as Riff B

Then as the song is fading out, just play Riff A over and over.


Here's the violin riff, transcribed for guitar.

Figure 1          Figure 2
e-----19-17-19---|-----19-17-19----------------------------------------|
B--17------------|--15-------------------------------------------------|
G----------------|-----------------------------------------------------|
D----------------|-----------------------------------------------------|
A----------------|-----------------------------------------------------|
E----------------|-----------------------------------------------------|
                                                 
Play Figure 1 over and over when it's in the song. When it's played, it's 
usually in an eight bar progression, so for the fourth bar in the eight
bars, play Figure B


And finally, for the violin part that's played during RIff B, play this:

e---------------------------------------------------------------------|
B---------------------------------------------------------------------|
G--14-12-14--12-12----------------------------------------------------|
D------------------12-14----------------------------------------------|
A---------------------------------------------------------------------|
E--------------------------12-10-12-10-etc.---------------------------|

Hammer on and pull off the second part until it stops.
Comments