Vendetta Red - Opiate Summer Chords & Tabs

 

Opiate Summer Chords & Tabs

Vendetta Red Chords & Tabs

Version: 1 Type: Tab 0 ratings
1 star 2 stars 3 stars 4 stars 5 stars
comments

Opiate Summer Tab

   
INTRO
E|----------------|----------------|----------------|----------------|
B|----------------|----------------|----------------|----------------|
G|----------------|----------------|-----------4----|-----------4----|
D|-2--------------|-5-4-2----------|-2-2----2--4----|-2-2----2--4----|
A|-2--------------|----------------|-2-2----2--2----|-2-2----2--2----|
D|-2--------------|----------------|-2-2----2--2----|-2-2----2--2----|


PRE CHORUS
E|------------------|------------------|
B|------------------|------------------|
G|-4-4-4-4-4-44-4-4-|-5-5-5555-7-7-7777|
D|-4-4-4-4-4-44-4-4-|-5-5-5555-7-7-7777| 2X
A|-2-2-0-2-2-22-0-2-|-3-3-3333-5-5-5555|
D|------------------|------------------|
[ Tab from: http://www.guitartabs.cc/tabs/v/vendetta_red/opiate_summer_tab.html ]
CHORUS
E|----------------|----------------|----------------|----------------|
B|----------------|----------------|----------------|----------------|
G|-7---2---4--4-5-|-7---2---4--4---|-7---2---4--4-5-|-7---2-2--------|
D|-7---2---4--4-5-|-7---2---4--4-5-|-7---2---4--4-5-|-7---2-2---5-5--|
A|-5---0---2--2-3-|-5---0---2--2-5-|-5---0---2--2-3-|-5---0-0---5-5--|
D|----------------|--------------5-|----------------|-----------5-5--|

POST CHORUS
E|----------------|
B|----------------|
G|---------5--5-5-|
D|-2--2-2--5--5-5-| 4X
A|-2--2-2--3--3-3-|
D|-2--2-2---------|

E|-----------------------|    E|----------------------------|---------------|
B|-----------------------|    B|----------------------------|---------------|
G|---44-55-44-7-44-44-44-|    G|---44-55-44-----------------|---------------|
D|-2-44-55-44-7-44-55-44-| 7X D|-2-44-55-44-2-2-2-2-5-5-5-5-|---------------|
A|-2-22-33-22-5-22-33-22-|    A|-2-22-33-22-2-2-2-2-5-5-5-5-|---5---7---9---|
D|-2---------------------|    D|-2----------2-2-2-2-5-5-5-5-|---------------|


E|-----|
B|-----|
G|--7--|
D|--7--|
A|--5--|
D|-----|
Comments