Velvet Underground - I Cant Stand It Chords & Tabs

 

Velvet Underground Chords & Tabs

Version: 1 Type: Tab 0 ratings
1 star 2 stars 3 stars 4 stars 5 stars
comments

I Cant Stand It Tab

   
song in standard tuning with a CAPO on the 1st fret... ive only mucked around witht he
for about 10 minutes but i couldnt find any good tabs tabs on this song so it might help
bit.


Chords                       the main riff consists of the notes Db and D
                             it can be played anywhere on the fretboard but
                             these two sound best, play either one.
    E         A
e---0---------0---------I   ------------I     ----------------|I PLAY THESE ON
b---0---------2---------I   ------------I  OR ----------------|I THE ACTUAL
g---1---------2---------I   ------------I     ----------------|I FRETS, IGNORE
d---2---------2---------I   ------------I     ----------------|I THE CAPO
a---2---------0---------I   -----6--5---I     ----------------|I
e---0---------0---------I   ------------I     ---11---10------|I

VERSE
 E
-0-0-0-0-0-0-0-0-0-0-0-0--------|
-0-0-0-0-0-0-0-0-0-0-0-0--------|
-1-1-1-1-1-1-1-1-1-1-1-1--------|
-2-2-2-2-2-2-2-2-2-2-2-2--------|   then repeat for verse
-2-2-2-2-2-2-2-2-2-2-2-2---6-5--|
-0-0-0-0-0-0-0-0-0-0-0-0--------|
 Before being a man
 Livin in a garbage pail
 My landlady call me up
 She tried to hit me with a mop

chorus
[ Tab from: http://www.guitartabs.cc/tabs/v/velvet_underground/i_cant_stand_it_tab.html ]
 E
-0-0-0-0-0-0-0-0-0-0-0-0-0-0-0----|
-0-0-0-0-0-0-0-0-0-0-0-0-0-0-0----|
-1-1-1-1-1-1-1-1-1-1-1-1-1-1-1----|
-2-2-2-2-2-2-2-2-2-2-2-2-2-2-2----|
-2-2-2-2-2-2-2-2-2-2-2-2-2-2-2----|
-0-0-0-0-0-0-0-0-0-0-0-0-0-0-0----|
 I cant stand it anymore more
 I cant stand it anymore more
 I cant stand it anymore more


       A                          A
-------6--------------------------6-------------------------|
-------6--------------------------6-------------------------|
-------7--------------------------7-------------------------|
-------8--------------------------8-------------------------|
-------8--------------------------8-------------------------|
-------6--------------------------6-------------------------|
But if shelly she would just come back Itll be alright


 E
-0-       this bit has a faster and differant
-0-       rythm. just listen to the song.
-1-  X16
-2-
-2-
-0-

       A                          A
-------6--------------------------6-------------------------|
-------6--------------------------6-------------------------|
-------7--------------------------7-------------------------|
-------8--------------------------8-------------------------|
-------8--------------------------8-------------------------|
-------6--------------------------6-------------------------|
But if shelly she would just come back Itll be alright

then the nest verse. you can pretty much pieve it together by listening to the song.
leave feedback. im not claiming this is 100% accurate but its a whole lot better than any
tab i can find for this song and it plays along with the song. you can contact me
a jamiesim1@hotmail.com
Comments