Velvet Underground - Heroin (intro) Chords & Tabs

 

Velvet Underground Chords & Tabs

Version: 1 Type: Chords 1 rating
1 star 2 stars 3 stars 4 stars 5 stars
comments

Heroin (intro) Chords

   
#----------------------------------PLEASE NOTE---------------------------------#
#This file is the author's own work and represents their interpretation of the #
#song. You may only use this file for private study, scholarship, or research. #
#------------------------------------------------------------------------------#

Velvet Underground: Heroin (intro/verse)
--------------------------


chords:  D G

(tune down one semitone)
[ Tab from: http://www.guitartabs.cc/tabs/v/velvet_underground/heroin_intro_crd.html ]
intro/verses
  D                  G                   D                  G
--2----------2---2---0----------0--------2---2----3-2---2---0----------0------|
--3-----3------3-----0-----0--------0----3--------3-3-3-3---0-----0--------0--|
--2---2--------2-----0---0---------------2-2---2------2-----0---0-------------|
--0------------------0-------------------0------------------0-----------------|
------------------------------------------------------------------------------|
------------------------------------------------------------------------------|

          D             G
--2-------------7------9----7-----|
--3-------------8-----10----8-----|
--2-------------7------9----7-----|   
--0-------------0------0----0-----|
----------------------------------|
----------------------------------|

        
Comments