Velvet Underground - Foggy Notion Chords & Tabs

 

Velvet Underground Chords & Tabs

Version: 1 Type: Tab 0 ratings
1 star 2 stars 3 stars 4 stars 5 stars
comments

Foggy Notion Tab

The Velvet Underground - Foggy Notion

e|--------------------------------------------------------------------------------------|
B|---x-x---------------------------8-------------------------------8--------------------|
G|---9-7--x-x-------7----------7-9---9p7------------7----------7-9---9p7------7-7-------|
D|---x-x-10-7--x-10---10-7--10-----------7-10-7--10---10-7--10-----------7--7-----10-7--|
A|---x-x--x-x---------------------------------------------------------------------------|
E|--------------------------------------------------------------------------------------|
[ Tab from: http://www.guitartabs.cc/tabs/v/velvet_underground/foggy_notion_tab.html ]
e|---------------------------------------------------------------------------------|
B|---------8----------------------------8----------------------------------10-8----|
G|-----7-9---9p7------7------7------7-9---9p7------------------7-------------------|
D|--10-----------7--7---7-10---7-10-----------7-10-7-10-7-7-7-10-9-7--7--7---------|
A|---------------------------------------------------------------------------------|
E|---------------------------------------------------------------------------------|

------------5----5--|
v10--10-10-b8~~-b8~~|
--------------------|
--------------------|
--------------------|
--------------------|

i didn't tab the timings, it's not hard to hear

have fun
Comments