Velvet Underground - Femme Fatale Chords & Tabs

 

Velvet Underground Chords & Tabs

Version: 1 Type: Tab 0 ratings
1 star 2 stars 3 stars 4 stars 5 stars
comments

Femme Fatale Tab

   
Velvet Underground - Femme Fetale

Tabbed by Uchiha23


intro   {Amaj7}{Dmaj7}{Amaj7}{Dmaj7}

        {Amaj7}{Dmaj7}{Amaj7}{Dmaj7}   (Here she comes ...)
        {Amaj7}{Dmaj7}{Bm}{E}          (She's going to break ...)

        {Amaj7}{Dmaj7}{Amaj7}{Dmaj7}   (It's not hard to ...)
        {Amaj7}{Dmaj7}{Bm}{E}          (She'll build you up to ...)

chorus  {A}{D}{A}{D}                   (- knows, the things ...)
        {A}{D}                         (- tease, See the way -)
        {Bm}{Bm}{G}{E}                 (- she walks, hear the ...)

        ....

coda    {A}{D}{A}{D}                   (- knows, the things ...)
        {A}{D}{A}{D}                   (- tease, Oh wow woh ...)
        {A}{D}{A}{D}                   (- woh, Oh wow woh ...)
        ... fade out


* intro (capo on 3 fret)

      {Amaj7}            {Dmaj7}
*1g  --------0----0-------------0----0------|
*2D  ------2----2---2---------2----2---2----|
*3A# ----1------------1-----1------------1--|
*4F  --2------------------0-----------------|
*5C  ---------------------------------------|
*6G  ---------------------------------------|

 {Amaj7}            {Dmaj7}
--------0----0-------------0----0------|
------2----2---2---------2----2---2----|
----1------------1-----1------------1--|
--2------------------0-----------------|
---------------------------------------|
---------------------------------------|


* verse (capo on 3 fret)

      Here         she      comes
      {Amaj7}            {Dmaj7}
*1g  --------0----0-------------0----0------|
*2D  ------2----2---2---------2----2---2----|
*3A# ----1------------1-----1------------1--|
*4F  --2------------------0-----------------|
*5C  ---------------------------------------|
*6G  ---------------------------------------|

 you'd better watch your step
 {Amaj7}            {Dmaj7}
--------0----0-------------0----0------|
------2----2---2---------2----2---2----|
----1------------1-----1------------1--|
--2------------------0-----------------|
---------------------------------------|
---------------------------------------|
[ Tab from: http://www.guitartabs.cc/tabs/v/velvet_underground/femme_fatale_tab.html ]
  She's going to      break your heart in -
 {Amaj7}            {Dmaj7}
--------0----0-------------2----2------|
------2----2---2---------3----3---3----|
----1------------1-----2------------2--|
--2------------------4-----------------|
---------------------------------------|
---------------------------------------|

- two,         it's true
 {Bm}               {E}
--------2----2-------------0----0------|
------3----3---3---------0----0---0----|
----4------------4-----1------------1--|   ....
--4------------------2-----------------|
---------------------------------------|
---------------------------------------|


* chorus (capo on 3 fret)

  - knows (she's a femme fatale)  the things she does to -
      {A}                {D}
*1g  ---------------------2-2-2-2--2h3-2-0-2--|
*2D  --2-2-2-2--2-2-2-2---3-3-3-3--3---3-3-3--|
*3A# --2-2-2-2--2-2-2-2---2-2-2-2--2---2-2-2--|
*4F  --2-2-2-2--2-2-2-2-----------------------|
*5C  -----------------------------------------|
*6G  -----------------------------------------|

- please (she's a femme fatale) She's just a little -
 {A}                {D}
---------------------2-2-2-2--2h3-2-0-2--|
--2-2-2-2--2-2-2-2---3-3-3-3--3---3-3-3--|
--2-2-2-2--2-2-2-2---2-2-2-2--2---2-2-2--|
--2-2-2-2--2-2-2-2-----------------------|
-----------------------------------------|
-----------------------------------------|

- tease (she's a femme fatale) see the way -
 {A}                {D}
---------------------2-2-2-2--2h3-2-0-2--|
--2-2-2-2--2-2-2-2---3-3-3-3--3---3-3-3--|
--2-2-2-2--2-2-2-2---2-2-2-2--2---2-2-2--|
--2-2-2-2--2-2-2-2-----------------------|
-----------------------------------------|
-----------------------------------------|

- she walks,              hear the way -
 {Bm}               {Bm}
--------2----2-------------2----2------|
------3----3---3---------3----3---3----|
----4------------4-----4------------4--|
--4------------------4-----------------|
---------------------------------------|
---------------------------------------|

- she talks
 {G}                {E}
--------3----3-------------0----0--------|
------3----3---3---------0----0---0------|
----4------------4-----1------------0h1--|
--5------------------2-------------------|
-----------------------------------------|
-----------------------------------------|
Comments