Velvet Revolver - You Got No Right Chords & Tabs

 

You Got No Right Chords & Tabs

Velvet Revolver Chords & Tabs

Version: 5 Type: Tab 0 ratings
1 star 2 stars 3 stars 4 stars 5 stars
comments

You Got No Right Tab

E--------------------------------------------------------------------------|
B-18-17-15-15-1515--20b18-18-17-17-15-------19--19b17\15-17-15----15-------|
G--------------------------------------------------------------17----------|
D-------------------------------------17-19--------------------------------|
A--------------------------------------------------------------------------|
E--------------------------------------------------------------------------|

E--------------------------------------------------------------------------|
B-----------------------------------------19b17\15-17-15----15-------------|
G-17b15-1414-14-121212-11-12-14--11-12-14----------------17----------------|
D--------------------------------------------------------------------------|
A--------------------------------------------------------------------------|
E--------------------------------------------------------------------------|
[ Tab from: http://www.guitartabs.cc/tabs/v/velvet_revolver/you_got_no_right_tab_ver_5.html ]
E-18-17-15-15-1515--20-18-18-17-17-15--14-15-17------20b17------20b17------|
B--------------------------------------------------------------------------|
G-----------------------------------------------1919-------1919------------|
D--------------------------------------------------------------------------|
A--------------------------------------------------------------------------|
E--------------------------------------------------------------------------|

E-22--22--22-22-22-22-20-17-20-17-15-17--16171617161716171617161716171617--|
B--------------------------------------------------------------------------|
G--------------------------------------------------------------------------|
D--------------------------------------------------------------------------|
A--------------------------------------------------------------------------|
E--------------------------------------------------------------------------|

E-14151415141514151415141514151415-----------------------------------------|
B--------------------------------------------------------------------------|
G--------------------------------------------------------------------------|
D--------------------------------------------------------------------------|
A--------------------------------------------------------------------------|
E--------------------------------------------------------------------------|
Comments