Velvet Revolver - You Got No Right Chords & Tabs

 

You Got No Right Chords & Tabs

Velvet Revolver Chords & Tabs

Version: 3 Type: Tab 0 ratings
1 star 2 stars 3 stars 4 stars 5 stars
comments

You Got No Right Tab

Band: Velvet Revolver
Song: You Got No Right
Album: Contraband
Tabbed by Barret Murphy 
I have no e-mail adress

Slash: Lead Guitar
Scott: Vocals
Dave: Rhythm Guitar
Duff: Bass
Matt: Drums
[ Tab from: http://www.guitartabs.cc/tabs/v/velvet_revolver/you_got_no_right_tab_ver_3.html ]
I'm not sure about the buildup into the solo because it's ridiculous. I think Slash hits
close to fifty notes in about 5 seconds
     ~~                      ~~                            ~~~~~~
E|-------------------------------------------------------------------------|
A|-------------------------------------------------------------------------|
D|-------------------------------------------------------------------------|
G|-------------------------------------------------------------------------|
B|----------------------10----------------------10-------------------------|
e|--/13--121212-101010------/15--131313-121212------14h15-17---------------|
                             ~~
E|-------------------------------------------------------------------------|
A|-------------------------------------------------------------------------|
D|-------------------------------------------------------------------------|
G|-----------------------------------15b17r--15---12b14-12b14-12b14r--12---|
B|---------------------12h15-15--------------------------------------------|
e|---12b13r--10h12p10------------------------------------------------------|
                  ~~~            ~~~                                   ~~
E|-------------------------------------------------------------------------|
A|-------------------------------------------------------------------------|
D|-------------------------------------------------------------------------|
G|-11h12h14p12-14-14----14p12-14-14----12h14p12------------------14--------|
B|---------------------------------------------13s15-13-12h13h12---13h15---|
e|-------------------------------------------------------------------------|
           ~~                   ~~                          ~~~
E|-------------------------------------------------------------------------|
A|-------------------------------------------------------------------------|
D|-------------------------------------------------------------------------|
G|-------------------------------------------------------------------------|
B|-15-15--------------------15--------------------15-----------------------|
e|-------/18--171717-151515----/20--181818-171717----14h15-17--------------|

E|-------------------------------------------------------------------------|
A|-------------------------------------------------------------------------|
D|-------------------------------------------------------------------------|
G|-------------------------------------------------------------------------|
B|-22-22-22b24r-22-22-22b24------------------------------------------------|
e|---------------------------20-18-21b22--18h20-17b18-19-17r---------------|

E|------------------------------------------------------------------|
A|------------------------------------------------------------------|
D|------------------------------------------------------------------|
G|------------------------------------------------------------------|
B|------------------------------------------------------------------|
e|--16b17r---16b17r-16b17r-16b17r-16b17r-16b17r-16b17r-16b17r-14-15-|

E|-------------------------------------------------------------------------|
A|-------------------------------------------------------------------------|
D|-------------------------------------------------------------------------|
G|-------------------------------------------------------------------------|
B|-------------------------------------------------------------------------|
e|-14b15rbrbrbrbrbr--------------------------------------------------------|

Ok well that's it but I know a couple parts of it are wrong. It still sounds ok though.
Good solo. And i don't know if you should try this one out Blaise, it's a tough one

Baaa
Comments