Velvet Revolver - Superhuman Chords & Tabs

 

Superhuman Chords & Tabs

Velvet Revolver Chords & Tabs

Version: 2 Type: Bass Tab 0 ratings
1 star 2 stars 3 stars 4 stars 5 stars
comments

Superhuman Bass Tab

Band: Velvet Revolver
Album: Contraband
Song: Superhuman
bass tab

this is an easy song to play so it should not be hard for you to get it down.
play in dropped d tuning


main riff
G------------------------------------------------------|
D------------------------------------------------------|
A------------------------------------------------------|
D00--00--00--00--004----------------------------------|


bridge
G-------------------------------------------------------|
D-------------------------------------------------------|
A-------------------------------------------------------|
D-6-5h6-5h6--5-3h5-3h5--6-5h6-5h6--5-3h5-38p7p6-5h6-5h6-|

G------------------------------------------------------|
D------------------------------------------------------|
A------------------------------------------------------|
D-5-3h5-3h5--6-5h6-5h6--5-3h5-3h5-8-8h7-8h7-8h7--------|

[ Tab from: http://www.guitartabs.cc/tabs/v/velvet_revolver/superhuman_btab_ver_2.html ]
alternate bridge
G-------------------------------------------------------|
D-------------------------------------------------------|
A-------------------------------------------------------|
D-6-5h6-5h6--5-3h5-3h5--6-5h6-5h6--5-3h5-38p76-5h6-5h6--|

G------------------------------------------------------|
D------------------------------------------------------|
A------------------------------------------------------|
D-5-3h5-3h5--6-5h6-5h6--5-3h5-3h5-3-0------------------|

solo riff
G------------------------------------------------------|
D------------------------------------------------------|
A-3h5-3h5-3h5--3h5--3h57-----------------------------|
D------------------------------------------------------|


order of riffs
main riff x 12
bridge x 1
main Riff x 12
bridge x 1
main Riff x 8
alternate Bridge x 1
main Riff x 4
solo Riff x 4
main Riff x 8


send questions and feedback to:
chip_wood@attbi.com
Comments