Velvet Revolver - Sucker Train Blues Chords & Tabs

 

Sucker Train Blues Chords & Tabs

Velvet Revolver Chords & Tabs

Version: 2 Type: Tab 0 ratings
1 star 2 stars 3 stars 4 stars 5 stars
comments

Sucker Train Blues Tab

   
Sucker Train Blues
standard tuning
intro- clean sound, it does this for awhile
e--------------------------------------|l
B-------3-2-------------3-2------------|l
G------------3-4-3-4--------3-4-3-4----|l
D--------------------------------------|l
A--------------------------------------|l
E--------------------------------------|l


after the intro the rythm guitar alternates between a G power  chord and a E power chord
this is also played during the chorus
[ Tab from: http://www.guitartabs.cc/tabs/v/velvet_revolver/sucker_train_blues_tab_ver_2.html ]
during the G power chord this is played
e-------------------------------------|l
B-------------------------------------|l
G-------------------------------------|l
D-----------------3-2-----------------|l
A-----5-5-4-5-4------4-5--------------|l
E-------------------------------------|l

during the E power chord this is played
e--------------------------------------|l
B--------------------------------------|l
G--------------------------------------|l
D------------------0-------------------|l
A------2-2-1-2-1----4-1-2--------------|l
E--------------------------------------|l


The Pre-chorus goes like this

A, G, B

Bridge is

D, C, E

D,C,B before the solo

the solo was recorded with a strat for the vibrato.
it is pretty much in Em sorry i dont tab solos

feel free to add the solo if you like
enjoy

mph123
dede2078
mhoer@hotmail.com
Comments