Velvet Revolver - Spectacle Chords & Tabs

 

Spectacle Chords & Tabs

Velvet Revolver Chords & Tabs

Version: 1 Type: Tab 0 ratings
1 star 2 stars 3 stars 4 stars 5 stars
comments

Spectacle Tab

Artist      - Velvet Revolver
Song        - Spectacle
Guitarist   - Slash
Guitar used - Gibson Les Paul with Seymour Duncan Alnico II pros

Tabbed by Oscar Sum
Please feel free to add oskysum@hotmail.com if you have any queries



Intro:
e|---------|-----------------------------------|
B|---------|-----------------------------------|
G|---------|-----------------------------------|
D|---------|-----------------------------------|
A|---------|--3-0-0-3-0-0-3-0-3-0-0-3-0-0-3-0--|
E|-3^(5)---|-----------------------------------|
                          play this bar X5



Main Riff:
e|-----------------------------------------------------------------------|
B|-----------------------------------------------------------------------|
G|-----------------------------------------------------------------------|
D|-----------------------------------------------------------------------|
A|---3-0-0-3-0-0-3-0-3-0-0-3-0-0-3-0----5-5-5-5-5-5-5-5--3-3-3-3-3-3-3-3-|
E|------------------------------------x-3-3-3-3-3-3-3-3--1-1-1-1-1-1-1-1-|
         
Slash's fill at the end of the first verse:                 
e|-----------------------------------------------------------------------|
B|--------------------------------------8-8-8-8-8-8-8-8--6-6-6-6-6-6-6-6-|
G|--------------------------------------10^(12)----------8^(10)----------|
D|-----------------------------------------------------------------------|
A|-----------------------------------------------------------------------|
E|-----------------------------------------------------------------------|
                          



Chorus:
e|----------------------------------------------------|
B|----------------------------------------------------|
G|-7-----------------------5--------------------------|
D|-7-------7-------3-------5--------------------------|
A|-5-------7-------3-------3--------------------------|
E|---------5-------1----------------------------------|
Its a simple rhythm.....and i couldnt' be bothered to type out 64 chords out

e|-------------------------------------------------------------------------|
B|-------------------------------------------------------------------------|
G|-8^(9)~~~~---------------------------------------------------------------|
D|-------------------------------------------------------------------------|
A|-------------------------------------------------------------------------|
E|-------------------------------------------------------------------------|  


e|-------------------------------------------------------------------|
B|-------------------------------------------------------------------|
G|-------------------------------------------------------------------|
D|----------------------------------------5-7------------------------|
A|---------------------------------5-7-8-----------------------------|
E|--------------------------5-7-8------------------------------------|
Slash plays this in the chorus just after the C chord  (only in second Chorus)

Back to Main Riff (see Above)

The next chorus has an extra line:

Chorus:
e|----------------------------------------------------|
B|----------------------------------------------------|
G|-7-----------------------5--------------------------|
D|-7-------7-------3-------5--------------------------|
A|-5-------7-------3-------3--------------------------|
E|---------5-------1----------------------------------|
(also remember to play Slash's fill)

e|------------------------0------------------------------------------|
B|------------------------0------------------------------------------|
G|-7----------------------1------------------------------------------|
D|-7-------7-------3------2------------------------------------------|
A|-5-------7-------3------2------------------------------------------|
E|---------5-------1------0------------------------------------------|



Rhythm Guitar
e|-------------------------------------------------------------------------|
B|-------------------------------------------------------------------------|
G|-------------------------------------------------------------------------|
D|-3-3-3-3--3-3-3-3--3-3-3-3--3-3-3-3--2-2-2-2--2-2-2-2--2-2-2-2--2-2-2-2--|
A|-3-3-3-3--3-3-3-3--3-3-3-3--3-3-3-3--2-2-2-2--2-2-2-2--2-2-2-2--2-2-2-2--|
E|-1-1-1-1--1-1-1-1--1-1-1-1--1-1-1-1--0-0-0-0--0-0-0-0--0-0-0-0--0-0-0-0--|                        
Play this 2 times then:

e|-------------------------------------------------------------------------|
B|-------------------------------------------------------------------------|
G|-------------------------------------5-5-5-5--5-5-5-5--5-5-5-5--5-5-5-5--|
D|-3-3-3-3--3-3-3-3--3-3-3-3--3-3-3-3--5-5-5-5--5-5-5-5--5-5-5-5--5-5-5-5--|
A|-3-3-3-3--3-3-3-3--3-3-3-3--3-3-3-3--3-3-3-3--3-3-3-3--3-3-3-3--3-3-3-3--|
E|-1-1-1-1--1-1-1-1--1-1-1-1--1-1-1-1--------------------------------------| 

e|-------------------------------------------------------------------------|
B|-------------------------------------------------------------------------|
G|-7-7-7-7--7-7-7-7--7-7-7-7--7-7-7-7--9-9-9-9--9-9-9-9--9-9-9-9--9-9-9-9--|
D|-7-7-7-7--7-7-7-7--7-7-7-7--7-7-7-7--9-9-9-9--9-9-9-9--9-9-9-9--9-9-9-9--|
A|-5-5-5-5--5-5-5-5--5-5-5-5--5-5-5-5--7-7-7-7--7-7-7-7--7-7-7-7--7-7-7-7--|
E|-------------------------------------------------------------------------|



While the Rhythm Guitar is playing the above, Slash is playing octave chords:
e|-------------------------------------------------------------------------|
B|-------------------------------------------------------------------------|
G|-10-10-10-10--10-10-10-10--10-10-10-10--10-10-10-10--9-9-9-9--9-9-9-9----|
D|-------------------------------------------------------------------------|
A|-8--8--8--8---8--8--8--8---8--8--8--8---8--8--8--8---7-7-7-7--7-7-7-7----|
E|-------------------------------------------------------------------------|
[ Tab from: http://www.guitartabs.cc/tabs/v/velvet_revolver/spectacle_tab.html ]
e|-------------------------------------------------------------------------|
B|-------------------------------------------------------------------------|
G|-9-9-9-9--9-9-9-9--------------------------------------------------------|
D|-------------------------------------------------------------------------|
A|-7-7-7-7--7-7-7-7--------------------------------------------------------|
E|-------------------------------------------------------------------------|  

e|-------------------------------------------------------------------------|
B|-------------------------------------------------------------------------|
G|-10-10-10-10--10-10-10-10--10-10-10-12---12-12-10-10--9-9-9-9---9-9-7-9--|
D|-------------------------------------------------------------------------|
A|-8--8--8--8---8--8--8--8---8--8--8--10---10-10-8--8---7-7-7-7---7-7-5-7--|
E|-------------------------------------------------------------------------|

e|-------------------------------------------------------------------------|
B|-------------------------------------------------------------------------|
G|-9-9-9-9--9-9-9-9--------------------------------------------------------|
D|-------------------------------------------------------------------------|
A|-7-7-7-7--7-7-7-7--------------------------------------------------------|
E|-------------------------------------------------------------------------|



e|-------------------------------------------------------------------------|
B|-----------------------------------------------------13-13-13-13---------|
G|-10-10-10-10--10-10-10-10--10-10-10-10--10-10-10-10----------------------|
D|-----------------------------------------------------10-10-10-10---------|
A|-8--8--8--8---8--8--8--8---8--8--8--8---8--8--8--8-----------------------|
E|-------------------------------------------------------------------------|

e|-------------------------------------------------------------------------|
B|-13-13-13-13--13-13-13-13--13-13-13-13--15-15-15-15--15-15-15-15---------|
G|-------------------------------------------------------------------------|
D|-10-10-10-10--10-10-10-10--10-10-10-10--12-12-12-12--12-12-12-12---------|
A|-------------------------------------------------------------------------|
E|-------------------------------------------------------------------------|

e|-------------------------------------------------------------------------|
B|-13-13-13-13--13-13-13-13--13-13-13-13--15-15-15-15--15-15-15-15---------|
G|-------------------------------------------------------------------------|
D|-10-10-10-10--10-10-10-10--10-10-10-10--12-12-12-12--12-12-12-12---------|
A|-------------------------------------------------------------------------|
E|-------------------------------------------------------------------------|

e|-------------------------------------------------------------------------|
B|-15-15-15-15--15-15-15-15--17-17-17-17--17-17-17-17--17-17-17-17---------|
G|-------------------------------------------------------------------------|
D|-12-12-12-12--12-12-12-12--14-14-14-14--14-14-14-14--14-14-14-14---------|
A|-------------------------------------------------------------------------|
E|-------------------------------------------------------------------------|

e|-------------------------------------------------------------------------|
B|-17-17-17-17-------------------------------------------------------------|
G|-------------------------------------------------------------------------|
D|-14-14-14-14-------------------------------------------------------------|
A|-------------------------------------------------------------------------|
E|-------------------------------------------------------------------------|


Solo:

e|-----------------------------------------------------------------------------|
B|-13-10-10-13-10-10-13-10-13-10-10-13-10-10-13^(15)~--------------------------|
G|-----------------------------------------------------------------------------|
D|----------------------------------------------------5-7-7-5-7-7-5-7-5-7-7-5--|
A|-----------------------------------------------------------------------------|
E|-----------------------------------------------------------------------------|

e|---------------------17----17------------------------------------------------|
B|------------------20----20----20--17--------------------------18^(20)--18----|
G|-----------19^(21)-------------------19^-19-17----17~------17----------------|
D|-7-7-5-7---------------------------------------19-------19-------------------|
A|-----------------------------------------------------------------------------|
E|-----------------------------------------------------------------------------|

e|-----------------------------------------------------------------------------|
B|-17-18-20-18-17h18p17----17-------18^(20)-18---17-18-20-18-17h18p17----------|
G|----------------------19-------17----------------------------------17-17^(19)|
D|----------------------------19-----------------------------------------------|
A|-----------------------------------------------------------------------------|
E|-----------------------------------------------------------------------------|

e|---------------------------------------------------------------17----17~-----|
B|------------------------------------------------------------20----20-----20--|
G|-17-17----17-19-19^(20)-17----17-19-19^(21)-19-19-17-19^(21)-----------------|
D|-------19------------------19------------------------------------------------|
A|-----------------------------------------------------------------------------|
E|-----------------------------------------------------------------------------|

e|----20-19-17-----------------------------------------------------------------|
B|-17-----------20-19-17---------------------------------20^(22)~~~------------|
G|-----------------------19-17-19-17----------17-19-17-------------------------|
D|-----------------------------------19-17-19----------------------------------|
A|-----------------------------------------------------------------------------|
E|-----------------------------------------------------------------------------|
I can't figure out the last bit of the solo, but i mean, it doesn't matter cos 
its the spirit of rock and roll!! he obviously made it up on teh spot anyway
and hes not gonna play it exactly the same every time is he?

Thanx for reading this tab
                         
Comments