Velvet Revolver - Slither Chords & Tabs

 

Slither Chords & Tabs

Velvet Revolver Chords & Tabs

Version: 5 Type: Bass Tab 0 ratings
1 star 2 stars 3 stars 4 stars 5 stars
comments

Slither Bass Tab

           Slither  Velvet Revolver


I love this song and this whole album it rocks go buy it


G||------|--------------------------|--------------------------|
D||------|--------------------------|--------------------------|
A||------|--------------8--8--8-----|--------------8--8--8--8--|
D||------|--0--0--0--0-----------0--|--0--0--0--0--------------|

--------------------------|--------------------------|
--------------------------|--------------------------|
--------------8--8--8-----|--------------8--8--8--8--|
--0--0--0--0-----------0--|--0--0--0--0--------------|

--------------------------|--------------------------|
--------------------------|--------------------------|
--------------8--8--8-----|--------------8--8--8--8--|
--0--0--0--0-----------0--|--0--0--0--0--------------|

--------------------------|--------------------------|
--------------------------|--------------------------|
--------------8--8--8-----|--------------8--8--8--8--|
--0--0--0--0-----------0--|--0--0--0--0--------------|

--------------------------|--------------------------|
--------------------------|--------------------------|
--------------8--8--8-----|--------------8--8--8-----|
--0--0--0--0-----------0--|--0--0--0--0-----------0--|

--------------------------|--------------------------|
--------------------------|--------------------------|
--------------8--8--8--8--|--------------8--8--8-----|
--0--0--0--0--------------|--0--0--0--0-----------0--|

--------------------------|--------------------------|
--------------------------|--------------------------|
--------------8--8--8--8--|--------------8--8--8-----|
--0--0--0--0--------------|--0--0--0--0-----------0--|

--------------------------|
--------------------------|
-----------------------3--|
--0--3--4--0--6--7--0-----|

--------------------------|--------------------------|
--------------------------|--------------------------|
--------------------------|-----------------------3--|
--0--6--7--0--5--0--3--4--|--0--3--4--0--6--7--0-----|

--------------------------|--------------------------|
--------------------------|--------------------------|
--------------------------|-----------------------3--|
--0--6--7--0--5--0--3--4--|--0--3--4--0--6--7--0-----|

--------------------------|--------------------------|
--------------------------|--------------------------|
--------------------------|-----------------------3--|
--0--6--7--0--5--0--3--4--|--0--3--4--0--6--7--0-----|

--------------------------|--------------------------|
--------------------------|--------------------------|
--------------------------|-----------------------3--|
--0--6--7--0--5--0--3--4--|--0--3--4--0--6--7--0-----|

--------------------------|--------------------------|
--------------------------|--------------------------|
--------------------------|-----------------------3--|
--0--6--7--0--5--0--3--4--|--0--3--4--0--6--7--0-----|

--------------------------|--------------------------|
--------------------------|--------------------------|
--------------------------|-----------------------3--|
--0--6--7--0--5--0--3--4--|--0--3--4--0--6--7--0-----|

--------------------------|--------------------------|
--------------------------|--------------------------|
--------------------------|-----------------------3--|
--0--6--7--0--5--0--3--4--|--0--3--4--0--6--7--0-----|

--------------------------|--------------------------|
--------------------------|--------------------------|
--------------------------|-----------------------3--|
--0--6--7--0--5--0--3--4--|--0--3--4--0--6--7--0-----|

--------------------------|--------------------------|
--------------------------|--------------------------|
--------------------------|-----------------------3--|
--0--6--7--0--5--0--3--4--|--0--3--4--0--6--7--0-----|

--------------------------|--------------------------|
--------------------------|--------------------------|
--------------------------|-----------------------3--|
--0--6--7--0--5--0--3--4--|--0--3--4--0--6--7--0-----|

--------------------------|--------------------------|
--------------------------|--------------------------|
--------------------------|-----------------------3--|
--0--6--7--0--5--0--3--4--|--0--3--4--0--6--7--0-----|

--------------------------|---------------------|----------------------|
--------------------------|---------------------|----------------------|
--------------------------|---------------------|----------------------|
--0--6--7--0--5--0--3--4--|--0------0--------0--|----------0--0--0--0--|

---------------------|----------------------|---------------------|
---------------------|----------------------|---------------------|
--3------3--------3--|----------3--3--3--3--|--2------2--------2--|
---------------------|----------------------|---------------------|

----------------------|---------------------|----------------------|
----------------------|---------------------|----------------------|
----------2--2--2--2--|---------------------|----------------------|
----------------------|--0------0--------0--|----------0--0--0--0--|

--------------------------|--------------------------|
--------------------------|--------------------------|
-----------------------3--|--------------------------|
--0--3--4--0--6--7--0-----|--0--6--7--0--5--0--3--4--|

--------------------------|--------------------------|
--------------------------|--------------------------|
-----------------------3--|--------------------------|
--0--3--4--0--6--7--0-----|--0--6--7--0--5--0--3--4--|

--------------------------|--------------------------|
--------------------------|--------------------------|
-----------------------3--|--------------------------|
--0--3--4--0--6--7--0-----|--0--6--7--0--5--0--3--4--|

--------------------------|--------------------------|
--------------------------|--------------------------|
-----------------------3--|--------------------------|
--0--3--4--0--6--7--0-----|--0--6--7--0--5--0--3--4--|

--------------------------|--------------------------|
--------------------------|--------------------------|
-----------------------3--|--------------------------|
--0--3--4--0--6--7--0-----|--0--6--7--0--5--0--3--4--|

--------------------------|--------------------------|
--------------------------|--------------------------|
-----------------------3--|--------------------------|
--0--3--4--0--6--7--0-----|--0--6--7--0--5--0--3--4--|

--------------------------|--------------------------|
--------------------------|--------------------------|
-----------------------3--|--------------------------|
--0--3--4--0--6--7--0-----|--0--6--7--0--5--0--3--4--|

--------------------------|--------------------------|
--------------------------|--------------------------|
-----------------------3--|--------------------------|
--0--3--4--0--6--7--0-----|--0--6--7--0--5--0--3--4--|

--------------------------|--------------------------|
--------------------------|--------------------------|
-----------------------3--|--------------------------|
--0--3--4--0--6--7--0-----|--0--6--7--0--5--0--3--4--|

--------------------------|--------------------------|
--------------------------|--------------------------|
-----------------------3--|--------------------------|
--0--3--4--0--6--7--0-----|--0--6--7--0--5--0--3--4--|

--------------------------|--------------------------|
--------------------------|--------------------------|
-----------------------3--|--------------------------|
--0--3--4--0--6--7--0-----|--0--6--7--0--5--0--3--4--|

--------------------------|--------------------------|---------------------|
--------------------------|--------------------------|---------------------|
-----------------------3--|--------------------------|---------------------|
--0--3--4--0--6--7--0-----|--0--6--7--0--5--0--3--4--|--0------0--------0--|
[ Tab from: http://www.guitartabs.cc/tabs/v/velvet_revolver/slither_btab_ver_5.html ]
----------------------|---------------------|----------------------|
----------------------|---------------------|----------------------|
----------------------|--3------3--------3--|----------3--3--3--3--|
----------0--0--0--0--|---------------------|----------------------|

---------------------|----------------------|---------------------|
---------------------|----------------------|---------------------|
--2------2--------2--|----------2--2--2--2--|---------------------|
---------------------|----------------------|--0------0--------0--|

----------------------|---------------------|----------------------|
----------------------|---------------------|----------------------|
----------------------|---------------------|----------------------|
----------0--0--0--0--|--0------0--------0--|----------0--0--0--0--|

---------------------|----------------------|---------------------|
---------------------|----------------------|---------------------|
--3------3--------3--|----------3--3--3--3--|--2------2--------2--|
---------------------|----------------------|---------------------|

----------------------|---------------------|----------------------|
----------------------|---------------------|----------------------|
----------2--2--2--2--|---------------------|----------------------|
----------------------|--0------0--------0--|----------0--0--0--0--|


|--------------------------|--------------------------|
|--------------------------|--------------------------|
|--------------8--8--8-----|--------------8--8--8--8--|
|--0--0--0--0-----------0--|--0--0--0--0--------------|

--------------------------|--------------------------|
--------------------------|--------------------------|
--------------8--8--8-----|--------------8--8--8--8--|
--0--0--0--0-----------0--|--0--0--0--0--------------|

--------------------------|--------------------------|
--------------------------|--------------------------|
--------------8--8--8-----|--------------8--8--8--8--|
--0--0--0--0-----------0--|--0--0--0--0--------------|

--------------------------|--------------------------|
--------------------------|--------------------------|
--------------8--8--8-----|--------------8--8--8--8--|
--0--0--0--0-----------0--|--0--0--0--0--------------|

--------------------------|--------------------------|
--------------------------|--------------------------|
--------------8--8--8-----|--------------8--8--8-----|
--0--0--0--0-----------0--|--0--0--0--0-----------0--|

--------------------------|--------------------------|
--------------------------|--------------------------|
--------------8--8--8--8--|--------------8--8--8-----|
--0--0--0--0--------------|--0--0--0--0-----------0--|

--------------------------|--------------------------|
--------------------------|--------------------------|
--------------8--8--8--8--|--------------8--8--8-----|
--0--0--0--0--------------|--0--0--0--0-----------0--|

--------------------------|--------------------------|
--------------------------|--------------------------|
--------------------------|--5--5--5--5--5--5--5--5--|
--------------------------|--------------------------|

--------------------------|--------------------------|
--------------------------|--------------------------|
--5--5--5--5--5--5--5--5--|--3--3--3--3--3--3--3--3--|
--------------------------|--------------------------|

--------------------------|--------------------------|
--------------------------|--------------------------|
--3--3--3--3--3--3--3--3--|--2--2--2--2--2--2--2--2--|
--------------------------|--------------------------|

--------------------------|--------------------------|
--------------------------|--------------------------|
--2--2--2--2--2--2--2--2--|--5--5--5--5--5--5--5--5--|
--------------------------|--------------------------|

-----7--5-----------------|--------------------------|
-----------7--6--5--------|--------------------------|
--5-----------------8--5--|--5--5--5--5--5--5--5--5--|
--------------------------|--------------------------|

--------------------------|--------------------------|
--------------------------|--------------------------|
--5--5--5--5--5--5--5--5--|--3--3--3--3--3--3--3--3--|
--------------------------|--------------------------|

--------------------------|--------------------------|
--------------------------|--------------------------|
--3--3--3--3--3--2--1--0--|--2--2--2--2--2--2--2--2--|
--------------------------|--------------------------|

--------------------------|--------------------------|----------------5--6-7-|
--------------------------|--------------------------|----------5--7---------|
--2--2--2--2--2--2--2--2--|--5--5--5--5--5--5--5--5--|--5--7-----------------|
--------------------------|--------------------------|-----------------------|

--------------------------|--------------------------|
--------------------------|--------------------------|
-----------------------3--|--------------------------|
--0--3--4--0--6--7--0-----|--0--6--7--0--5--0--3--4--|

--------------------------|--------------------------|
--------------------------|--------------------------|
-----------------------3--|--------------------------|
--0--3--4--0--6--7--0-----|--0--6--7--0--5--0--3--4--|

--------------------------|--------------------------|
--------------------------|--------------------------|
-----------------------3--|--------------------------|
--0--3--4--0--6--7--0-----|--0--6--7--0--5--0--3--4--|

-----------------------------|--------------------------|--------------------|
-----------------------------|--------------------------|--------------------|
-----------------------------|--------------------------|--------------------|
--0--10--12--0--9--10--0--7--|--0--6--7--0--5--0--3--4--|--0------0----------|

----------------------|---------------------|----------------------|
----------------------|---------------------|----------------------|
----------------------|--3------3--------3--|----------3--3--3--3--|
----------0--0--0--0--|---------------------|----------------------|

---------------------|----------------------|---------------------|
---------------------|----------------------|---------------------|
--2------2--------2--|----------2--2--2--2--|---------------------|
---------------------|----------------------|--0------0--------0--|

----------------------|---------------------|----------------------|
----------------------|---------------------|----------------------|
----------------------|---------------------|----------------------|
----------0--0--0--0--|--0------0--------0--|----------0--0--0--0--|

---------------------|----------------------|---------------------|
---------------------|----------------------|---------------------|
--3------3--------3--|----------3--3--3--3--|--2------2--------2--|
---------------------|----------------------|---------------------|

----------------------|--------------------------|--------------------------|
----------------------|--------------------------|--------------------------|
----------2--2--2--2--|--------------------------|--5--5--5--5--5--5--5--5--|
----------------------|--0--0--0--0--0--0--0--0--|--------------------------|

--------------------------|--------------------------|
--------------------------|--------------------------|
-----------------------3--|--------------------------|
--0--3--4--0--6--7--0-----|--0--6--7--0--5--0--3--4--|

--------------------------|--------------------------|
--------------------------|--------------------------|
-----------------------3--|--------------------------|
--0--3--4--0--6--7--0-----|--0--6--7--0--5--0--3--4--|

--------------------------|--------------------------|
--------------------------|--------------------------|
-----------------------3--|--------------------------|
--0--3--4--0--6--7--0-----|--0--6--7--0--5--0--3--4--|

-----------------------------|--------------------------|-------------------|
-----------------------------|--------------------------|-------------------|
-----------------------------|--------------------------|-------------------|
--0--10--12--0--9--10--0--7--|--0--6--7--0--5--0--3--4--|--0----------------|
Comments