Velvet Revolver - Slither Chords & Tabs

 

Slither Chords & Tabs

Velvet Revolver Chords & Tabs

Version: 1 Type: Bass Tab 0 ratings
1 star 2 stars 3 stars 4 stars 5 stars
comments

Slither Bass Tab

Drop D tuning

Intro part 1
|-----------------|-----------------|
|o----------------|----------------o|
|o--------8-8-8---|---------8-8-8-8o|
|-0-0-0-0-------0-|-0-0-0-0---------|
                                                       
Intro part 2
|-----------------|-----------------|
|-----------------|-----------------|
|---------8-8-8---|-----------------|
|-0-0-0-0-------0-|-----------------|

Main Riff
|-----------------|-----------------| x4
|o----------------|----------------o|
|o----------------|----------------o|
|-0-3-4-0-6-7-0-10|-0-6-7-0-5-0-3-4-|

1st and 2nd Verse
|-----------------|-----------------| x8
|o----------------|----------------o|
|o----------------|----------------o|
|-0-3-4-0-6-7-0-10|-0-6-7-0-5-0-3-4-|

Chorus
|-----------------|-----------------|-----------------|-----------------|
|-----------------|-----------------|-----------------|-----------------|
|-----------------|---------------0-|-3-----3-----3-3-|---333-3-3-5-3-0-|
|-0-----0-----0-0-|---0-0-----0-0---|-----------------|-----------------|

|-----------------|-----------------|-----------------|-----------------|
|-----------------|-----------------|-----------------|-----------------|
|-2-----2-----2-2-|---2-2-223-3-3-3-|-----------------|-------------0---|
|-----------------|-----------------|-0-----0-----0-0-|---0-0---0-0-----|

Solo
|-----------------|-----------------|-----------------|-----------------|
|-----------------|-----------------|-----------------|-----------------|
|-5-5-5---5-5-5-5-|---5-5---5-5-0-2-|-3---3---3-3-3-3-|---3-3---3-5-3-0-|
|-----------------|-----------------|-----------------|-----------------|
[ Tab from: http://www.guitartabs.cc/tabs/v/velvet_revolver/slither_btab.html ]
|-----------------|-----------------|-----------------|-----------------|
|-----------------|-----------------|-----------------|-----------------|
|-2-2-2---2-2-2-2-|-2-2---2-3-3-333-|-----------------|---5-3-0-5-3-2---|
|-----------------|-----------------|-0-0-0---0-0-0---|-----------------|

|-----------------|-----------------|-----------------|-----------------|
|-----------------|-----------------|-----------------|-------023-2-0---|
|-----------------|---------------2-|-3---3-3---3-3---|-3-3-3---------3-|
|-0---0-0---0-0-0-|---0-0-0---0-0---|-----------------|-----------------|

|-----------------|-----------------|-----------------|-----------------|
|-----------------|-----------------|-----------------|-----------------|
|-2---2---2-2-2-2-|---2-2---3-3-333-|-5---5---5-5-----|---8-8---10101212|
|-----------------|-----------------|-------------0-0-|-0---------------|

3rd Verse
|-----------------|-----------------| x3
|o----------------|----------------o|
|o----------------|----------------o|
|-0-3-4-0-6-7-0-10|-0-6-7-0-5-0-3-4-|

|--------------------|-----------------|
|--------------------|-----------------|
|--------------------|-----------------|
|-0-10-12-0-9-10-0-7-|-0-6-7-0-5-0-3-4-|

Outro
|-----------------|-----------------| x3
|o----------------|----------------o|
|o----------------|----------------o|
|-0-3-4-0-6-7-0-10|-0-6-7-0-5-0-3-4-|

|--------------------|-----------------|-----------------|
|--------------------|-----------------|-----------------|
|--------------------|-----------------|-----------------|
|-0-10-12-0-9-10-0-7-|-0-6-7-0-5-0-3-4-|-0---------------|


Order

Intro part 1 x 7
Intro part 2
Main Riff
1st Verse
Chorus
Main Riff	
2nd Verse
Chorus x 2 
Intro part 1 x 3
Intro part 2
Solo			
3rd Verse
Chorus x 2
Outro
Comments