Velvet Revolver - Set Me Free Chords & Tabs

 

Set Me Free Chords & Tabs

Velvet Revolver Chords & Tabs

Version: 1 Type: Tab 0 ratings
1 star 2 stars 3 stars 4 stars 5 stars
comments

Set Me Free Tab

Artist URL: http://www.velvet-revolver.com

Song      : Set Me Free ("The Hulk" Soundtrack)
Band      : Velvet Revolver (Scott Weiland / Duff McKagan / Matt Sorum)
Tabbed by : Robby

Standard Tuning  EBGDAE

e|--x--x-x-x-x-x--|--------------------------------|
B|--x--x-x-x-x-x--|-4p3--1--1-1-----1--------------|
G|--x--x-x-x-x-x--|--------------------0--1--2-----|
D|--x--x-x-x-x-x--|--------------------------------|
A|--x--x-x-x-x-x--|--------------------------------|
E|--x--x-x-x-x-x--|--------------------------------|
                                Play  6x
[ Tab from: http://www.guitartabs.cc/tabs/v/velvet_revolver/set_me_free_tab.html ]
Heavier distortion used here.
e|-------------------------------------------------|
B|-4p3--1----2-2--3-3------------------------------|
G|---------------------2-2--33--4-4---------------|
D|-------------------------------------------------|
A|-------------------------------------------------|
E|-------------------------------------------------|
                      Play  4x

e|--------------|
B|-4p3--1-------|
G|--------------|
D|--------------|
A|--------------|
E|--------------|

Scott Weiland sings then its back to:
e|-------------------------------------------------|
B|-4p3--1----2-2--3-3------------------------------|
G|---------------------2-2--33--4-4---------------|
D|-------------------------------------------------|
A|-------------------------------------------------|
E|-------------------------------------------------|
                       Play  3x

e|--------------|
B|-4p3--1-------|
G|--------------|
D|--------------|
A|--------------|
E|--------------|

p = pull-off
Comments