Velvet Revolver - Set Me Free Complete Chords & Tabs

 

Set Me Free Complete Chords & Tabs

Velvet Revolver Chords & Tabs

Version: 1 Type: Tab 3 ratings
1 star 2 stars 3 stars 4 stars 5 stars
comments

Set Me Free Complete Tab

   
Velvet Revolver - Set Me Free.

The album is going to be awesome.
Assume Gtr.1 is Slash, could be wrong about that in some parts.
Please read the instructions, they are there to keep the document small,
and to prevent me repeating tab over and over again.

Gtr.1 Intro
e|-x--x-x-x-x------------------------------------------|
B|-x--x-x-x-x------------------------------------------|
G|-x--x-x-x-x--8p7-x-5-5-5-6--------8p7-x-5-5-5-6------|
D|-x--x-x-x-x----------------5-6-7----------------5-6-7|
A|-x--x-x-x-x------------------------------------------|
E|-x--x-x-x-x------------------------------------------|

FIG A.
Gtr.1
e|------------------------------------------|
B|------------------------------------------|
G|-8p7-x-5-5-5-6--------8p7-x-5-5-5-6-------| Play x2
D|---------------5-6-7----------------5-6-7-|
A|------------------------------------------|
E|------------------------------------------|

Gtr.2
e|------------------------------------------|
B|------------------------------------------|
G|/2--------------------2-------------------| Play x2
D|/2--------------------2-------------------|
A|/0--------------------0-------------------|
E|------------------------------------------|

FIG B.
Gtr.1                                                          *
e|---------------------------------------------------------------|
B|---------------------------------------------------------------|
G|-2-----------------------------2-----------------------------2-|Play x2 
D|-2-----------------------1p0---2-----------------------1p0---2-|
A|-0-0-3-3-4-4---------0-0-----3-0-0-3-3-4-4---------0-0-----3-0-|
E|-------------3-3-4-4-----------------------3-3-4-4-------------|

(* play last time only)

Gtr.2 Same as above except with pickscrape at start.
e|-------|
B|-------|
G|-/////-|
D|-/////-|
A|-/////-|
E|-------|

Bassline plays the Verse..

Now Gtr. 1 plays Fig A 4 times, while Gtr.2 plays Fig B 4 times.

FIG C. CHORUS 1.

Both Guitars.

e|----------------------------------------------|
B|----------------------------------------------|
G|-7----3----5---------7----3----10-10-10-9-9-9-|
D|-7----3----5----5----7----3----10-10-10-9-9-9-|
A|-5----1----3----5----5----1----8--8--8--7-7-7-|
E|----------------3-----------------------------|

Now both guitars play FIG.B
Followed by the Bassline of the Verse.

Now Gtr. 1 plays Fig A 4 times, while Gtr.2 plays Fig B 4 times.

FIG D. CHORUS 2.
BOTH GUITARS.
e|--------------------------------------|
B|--------------------------------------|
G|-7----3----5---------7----3---------5-|
D|-7----3----5----5----7----3----5----5-|
A|-5----1----3----5----5----1----5----3-|
E|----------------3--------------3------|

Both Guitars.

e|----------------------------------------|
B|----------------------------------------|
G|-7----3----5---------7----3----10-10-10-|
D|-7----3----5----5----7----3----10-10-10-|
A|-5----1----3----5----5----1----8--8--8--|
E|----------------3-----------------------|

FIG E.
GTR.1 (So take me down...)

e|------------------------------------------------|
B|-------------------8^10-8-5-8p5-----------------|
G|--------------------------------7-5-------------|
D|-3--2--5--2-3--2--------------------7-5---------|
A|-3--2--5--2-3--2------------------------7-5-3---|
E|-1--0--3--0-1--0------------------------------5-|

GTR.2
e|------------------------------------------------|
B|------------------------------------------------|
G|------------------2-----------------------------|
D|-3--2--5--2-3--2--2-----------------------------|
A|-3--2--5--2-3--2--0-----------------------------|
E|-1--0--3--0-1--0--------------------------------|

e|------------------------------------------------|
B|------------------------------------------------|
G|--------------------2h5---2h5---2h5---2h5-------|
D|-3--2--5--5-3--2--2-----2-----2-----2-----------|
A|-3--2--5--5-3--2--0-----0-----0-----0-----------|
E|-1--0--3--2-1--0--------------------------------|
[ Tab from: http://www.guitartabs.cc/tabs/v/velvet_revolver/set_me_free_complete_tab.html ]
e|------------------------------------------------|
B|------------------------------------------------|
G|------------------2^4r--------------------------|
D|-3--2--5--5-3--2--------------------------------|
A|-3--2--5--5-3--2--------------------------------|
E|-1--0--3--2-1--0--------------------------35/0-|

PreSolo
Gtr.1
e|------------------------------------------|
B|------------------------------------------|
G|-8p7-x-5-5-5-6--------8p7-x-5-5-5-6-------|
D|---------------5-6-7----------------5-6-7-|
A|------------------------------------------|
E|------------------------------------------|

Then

Gtr.1
e|------------------------------------------|
B|------------------------------------------|
G|-8p7-x-5-5-5-6--------8p7-x-5-5-5-6-------|
D|---------------5-6-7----------------5-6-7-|
A|------------------------------------------|
E|------------------------------------------|

Gtr.2
e|------------------------------------------|
B|------------------------------------------|
G|/2--------------------2-------------------|
D|/2--------------------2-------------------|
A|/0--------------------0-------------------|
E|------------------------------------------|

SOLO:

Gtr.2 plays A all the way through.

Gtr.1
e|------------------------------------------------------------------
B|------------------------------------------------------------------
G|-8p7-5-5-5-x-5-5-5-x-5-------------5-5-5-x-5-5-5-x-5-5-5-x-7^8r-5-
D|-----------------------5h7-7-x-5h7--------------------------------
A|------------------------------------------------------------------
E|------------------------------------------------------------------

Gtr.1
e|-----------------------------------------------
B|---------------------------8-----7----8----5---
G|-7^8-5-7-5h7--7^8-5-7-5~~--10^12-9^11-8^10-7^9-
D|-----------------------------------------------
A|-----------------------------------------------
E|-----------------------------------------------

Gtr.1
e|-----------------------------------------------------------------------
B|-16-17-16-17----------16-17-16-17--------------17-------17-------------
G|-------------17-------------------17-----------17-19^21----19-17-19/17-
D|----------------19-17----------------19-17-19~~------------------------
A|-----------------------------------------------------------------------
E|-----------------------------------------------------------------------

Gtr.1
e|---------------------------------------------17~-20-20^22-22^24~~-|
B|-------17-20^22-17-20~-------17-20^22-17-20~----------------------|
G|-19^21-----------------19^21--------------------------------------|
D|------------------------------------------------------------------|
A|------------------------------------------------------------------|
E|------------------------------------------------------------------|


End Chorus:
e|--------------------------------------|
B|--------------------------------------|
G|-7----3----5---------7----3---------5-|Play x2
D|-7----3----5----5----7----3----5----5-|
A|-5----1----3----5----5----1----5----3-|
E|----------------3--------------3------|

e|----------------------------------------|
B|----------------------------------------|
G|-7----3----5---------7----3----10-10-10-|Play x2
D|-7----3----5----5----7----3----10-10-10-|
A|-5----1----3----5----5----1----8--8--8--|
E|----------------3-----------------------|

Play this one more time except Gtr.1 plays the part below at the same time.

e|-------------------------------------------------
B|-15----15----15----15----15----15----15----15----
G|-17^19-17^19-17^19-17^19-17^19-17^19-17^19-17^19-
D|-------------------------------------------------
A|-------------------------------------------------
E|-------------------------------------------------

e|-------------------------------------13~~~~~|
B|-10----11----13----12----10----11-----------|
G|-12^14-13^15-15^17-14^16-12^14-13^15--------|
D|--------------------------------------------|
A|--------------------------------------------|
E|--------------------------------------------|

End

Both Guitars
e|-------------------------|
B|-------------------------|
G|-------------------3-3-3-|Play X4
D|-3-3-3-3-3-3-3-3-3-3-3-3-|
A|-3-3-3-3-3-3-3-3-3-1-1-1-|
E|-1-1-1-0h1-1-1-0h1-------|

End on

e|---
B|-2-
G|-2-
D|-2-
A|-0-
E|---

Comments