Velvet Revolver - Set Me Free Chords & Tabs

 

Set Me Free Chords & Tabs

Velvet Revolver Chords & Tabs

Version: 3 Type: Bass Tab 0 ratings
1 star 2 stars 3 stars 4 stars 5 stars
comments

Set Me Free Bass Tab

----------------------------------------------------------------------------
			     SET ME FREE - Velvet Revolver
----------------------------------------------------------------------------

Tabbed By : bassplaya373

Tuning: Standard

Intro
( Do the 12's however many times
G|-------------------------------------------------------------------------|
D|-------------------------------------------------------------------------|
A|-12121212121212121212121212121212121212121212121212121212121212121212----|
E|-------------------------------------------------------------------------|


(then for the last part of the intro)
G|-------------------------------------------------------------------------|
D|-------------------------------------------------------------------------|
A|-1212121212----------------0---------------------------------------------|
E|------------11-11-11-10-11-----------------------------------------------|


Main Riff x4

G|-------------------------------------------------------------------------|
D|-------------------------------------------------------------------------|
A|--------0--3-3-4-4---------0-0--6-5-3-0----------------------------------|
E|-------------------3-3-4-4-----------------------------------------------|


Verse x4

G|-------------------------------------------------------------------------|
D|-------------------------------------------------------------------------|
A|--------0--3-3-4-4---------0-0--6-5-3-0----------------------------------|
E|-------------------3-3-4-4-----------------------------------------------|

Pre Chorus pt 1 x3

G|-------------------------------------------------------------------------|
D|-------------------------------------------------------------------------|
A|--------0--3-3-4-4---------0-0--6-5-3-0----------------------------------|
E|-------------------3-3-4-4-----------------------------------------------|

Pre Chorus pt 2

G|-------------------------------------------------------------------------|
D|-------------------------------------------------------------------------|
A|--------0--3-3-4-4---------0-0--6-6-6-5----------------------------------|
E|-------------------3-3-4-4-----------------------------------------------|


Chorus

G|-------------------------------------------------------------------------|
D|-------------------------------------------------------------------------|
A|--5-5-5-5-5-5-5-5--1-1-1-1-1-1-1-1--3-3-3-3-3-3-3-3-3---------3-4-5------|
E|------------------------------------------------------3-3-3-3------------|

G|-------------------------------------------------------------------------|
D|-------------------------------------------------------------------------|
A|--5-5-5-5-5-5-5-5--1-1-1-1-1-1-1-1--8-8-8-8-8-8-8-8-8-8-8-8-8-8-8--7-7-7-|
E|-------------------------------------------------------------------------|


Main Riff x4

Verse x4

Pre Chorus pt1 x3

Pre Chorus pt 2


Chorus

G|-------------------------------------------------------------------------|
D|-------------------------------------------------------------------------|
A|--5-5-5-5-5-5-5-5--1-1-1-1-1-1-1-1--3-3-3-3-3-3-3-3-3---------3-4-5------|
E|------------------------------------------------------3-3-3-3------------|

G|-------------------------------------------------------------------------|
D|-------------------------------------------------------------------------|
A|--5-5-5-5-5-5-5-5--1-1-1-1-1-1-1-1----------------------------3-3-3-3-3--|
E|------------------------------------3-3-3-3-3-3-3-3-3-3-3-3-3------------|

G|-------------------------------------------------------------------------|
D|-------------------------------------------------------------------------|
A|--5-5-5-5-5-5-5-5--1-1-1-1-1-1-1-1--3-3-3-3-3-3-3-3-3---------3-4-5------|
E|------------------------------------------------------3-3-3-3------------|

G|-------------------------------------------------------------------------|
D|-------------------------------------------------------------------------|
A|--5-5-5-5-5-5-5-5--1-1-1-1-1-1-1-1--8-8-8-8-8-8-8-8-8-8-8-8-15-15-17-17--|
E|-------------------------------------------------------------------------|

Middle
[ Tab from: http://www.guitartabs.cc/tabs/v/velvet_revolver/set_me_free_btab_ver_3.html ]
G|-------------------------------------------------------------------------|
D|-------------------------------------------------------------------------|
A|-------------------------------------------------------------------------|
E|-1-1-1-1-1-1-1-0-0-0-0-0-0-0-0-3-3-3-3-3-3-3-3-3-3--0--------------------|

G|-------------------------------------------------------------------------|
D|------------------------------------------------7-7-7-7-7-7-7-7-7-7------|
A|-------------------------------------------------------------------------|
E|-1-1-1-1-1-1-1-0-0-0-0-0-0-0-0-5-5-5-5-5-5-5-5---------------------------|

G|-------------------------------------------------------------------------|
D|-------------------------------------------------------------------------|
A|-------------------------------------------------------------------------|
E|-1-1-1-1-1-1-1-0-0-0-0-0-0-0-0-3-3-3-3-3-3-3-3-3-3--0--------------------|

G|-------------------------------------------------------------------------|
D|------------------------------------------------7-7-7-7-7----------------|
A|-------------------------------------------------------------------------|
E|-1-1-1-1-1-1-1-0-0-0-0-0-0-0-0-5-5-5-5-5-5-5-5------------7-4-5----------|


Solo x4
G|-------------------------------------------------------------------------|
D|-------------------------------------------------------------------------|
A|--------0--0-0-0-0-0-0-0-0-0-0-0-3-3-3-0-0-0-0-0-0-0-0-0-0-0-0-6-5-3-----|
E|-------------------------------------------------------------------------|

Chorus

G|-------------------------------------------------------------------------|
D|-------------------------------------------------------------------------|
A|--5-5-5-5-5-5-5-5--1-1-1-1-1-1-1-1--3-3-3-3-3-3-3-3-3---------3-4-5------|
E|------------------------------------------------------3-3-3-3------------|

G|-------------------------------------------------------------------------|
D|-------------------------------------------------------------------------|
A|--5-5-5-5-5-5-5-5--1-1-1-1-1-1-1-1----------------------------3-3-3-3-3--|
E|------------------------------------3-3-3-3-3-3-3-3-3-3-3-3-3------------|

G|-------------------------------------------------------------------------|
D|-------------------------------------------------------------------------|
A|--5-5-5-5-5-5-5-5--1-1-1-1-1-1-1-1--3-3-3-3-3-3-3-3-3---------3-4-5------|
E|------------------------------------------------------3-3-3-3------------|

G|-------------------------------------------------------------------------|
D|-------------------------------------------------------------------------|
A|--5-5-5-5-5-5-5-5--1-1-1-1-1-1-1-1--8-8-8-8-8-8-8-8-8-8-8-8-8-8-15-15-15-|
E|-------------------------------------------------------------------------|

G|-------------------------------------------------------------------------|
D|-------------------------------------------------------------------------|
A|--5-5-5-5-5-5-5-5--1-1-1-1-1-1-1-1--3-3-3-3-3-3-3-3-3---------3-4-5------|
E|------------------------------------------------------3-3-3-3------------|

G|-------------------------------------------------------------------------|
D|-------------------------------------------------------------------------|
A|--5-5-5-5-5-5-5-5--1-1-1-1-1-1-1-1----------------------------3-3-3-3-3--|
E|------------------------------------3-3-3-3-3-3-3-3-3-3-3-3-3------------|

G|-------------------------------------------------------------------------|
D|-------------------------------------------------------------------------|
A|--5-5-5-5-5-5-5-5--1-1-1-1-1-1-1-1--8-8-8-8-8-8-8-8-8-8-8-8-8-8-8-8-8-8--|
E|-------------------------------------------------------------------------|

Outro

G|-------------------------------------------------------------------------|
D|-------------------------------------------------------------------------|
A|--------------------------1-1-1-------------------------1-1-1------------|
E|--1-1-1-0-1-1-1-0-1-1-1-0-------1-1-1-0-1-1-1-0-1-1-1-0------------------|

G|-------------------------------------------------------------------------|
D|-------------------------------------------------------------------------|
A|--------------------------1-1-1-------------------------1-1-1-0ring------|
E|--1-1-1-0-1-1-1-0-1-1-1-0-------1-1-1-0-1-1-1-0-1-1-1-0------------------|
Comments