Velvet Revolver - Loving The Alien Chords & Tabs

 

Loving The Alien Chords & Tabs

Velvet Revolver Chords & Tabs

Version: 2 Type: Bass Tab 0 ratings
1 star 2 stars 3 stars 4 stars 5 stars
comments

Loving The Alien Bass Tab

Band - Velvet Revolver
Song - Loving The Alien

Intro:
G|-----------------------------------------------------------|
D|--5-5------------------------------------------------------|
A|--------3--------------------------------------------------|
E|-----------------------------------------------------------|

Verse:
G|------------------------------------------------------------|
D|------------------------------------------------------------|
A|----3-3-3-3------3-3--------------------0-0-0-0-0------0-0--|
E|------------------------------------------------------------|

G|------------------------------------------------------------|
D|------------------------------------------------------------|
A|------------------------------------------------------------|
E|----0-0-0-0-0------0-0-----------------3-3-3-3-3------------|

G|------------------------------------------------------------|
D|------------------------------------------------------------|
A|----0-1-3------3-3-3-3----------3-5------0-0-0-0-0----------|
E|------------------------------------------------------------|

G|------------------------------------------------------------|
D|------------------------------------------------------------|
A|----3-------------------------------------------------------|
E|---------0-0-0-0-0-0---------------------3-3-3-3-3-3--------|

Chorus:
G|------------------------------------------------------------|
D|------------------------------------------------------------|
A|--------------3-2-0-2-0-------------------------------------|
E|----1-1-1------------------3-3-3-3-3-3-3--------------------|

G|------------------------------------------------------------|
D|------------------------------------------------------------|
A|--------------3-2-0-2-0-------------------------------------|
E|----1-1-1------------------3-3-3-3-3-3-3--------------------|

G|------------------------------------------------------------|
D|------------------------------------------------------------|
A|--------------3-2-0-2-0-------------------------------------|
E|----1-1-1------------------3-3-3-3-3-3-3--------------------|

G|------------------------------------------------------------|
D|------------------2-2-2-2-2-2---3-3-3-3-3-3---5-5-5-5-5-5---|
A|----3-3-3-3-3-3---------------------------------------------|
E|------------------------------------------------------------|

G|------------------------------------------------------------|
D|------------------2-2-2-2-2-2---3-3-3-3-3-3---3-2-0---------|
A|----3-3-3-3-3-3---------------------------------------------|
E|------------------------------------------------------------|

Verse:
G|------------------------------------------------------------|
D|------------------------------------------------------------|
A|----3-3-3-3------3-3------------------0-0-0-0-0------0-0----|
E|------------------------------------------------------------|

G|------------------------------------------------------------|
D|------------------------------------------------------------|
A|------------------------------------------------------------|
E|----0-0-0-0-0------0-0-----------------3-3-3-3-3------------|

G|------------------------------------------------------------|
D|------------------------------------------------------------|
A|----0-1-3---3-3-3---3-5---0-0-0-0-0---3-2-------------------|
E|------------------------------------------------------------|
[ Tab from: http://www.guitartabs.cc/tabs/v/velvet_revolver/loving_the_alien_btab_ver_2.html ]
G|------------------------------------------------------------|
D|------------------------------------------------------------|
A|------------------------------------------------------------|
E|----0-0-0-0-0------0-0-----------------3-3-3-3-3------------|

Chorus:
G|------------------------------------------------------------|
D|------------------------------------------------------------|
A|--------------3-2-0-2-0-------------------------------------|
E|----1-1-1------------------3-3-3-3-3-3-3--------------------|

G|------------------------------------------------------------|
D|------------------------------------------------------------|
A|--------------3-2-0-2-0-------------------------------------|
E|----1-1-1------------------3-3-3-3-3-3-3--------------------|

G|------------------------------------------------------------|
D|------------------------------------------------------------|
A|--------------3-2-0-2-0-------------------------------------|
E|----1-1-1------------------3-3-3-3-3-3-3--------------------|

G|------------------------------------------------------------|
D|------------------2-2-2-2-2-2---3-3-3-3-3-3---5-5-5-5-5-5---|
A|---3-3-3-3-3-3----------------------------------------------|
E|------------------------------------------------------------|

G|------------------------------------------------------------|
D|------------------------2-2-2-2-2-2---3-3-3-3-3-3---3-2-0---|
A|---0-1-3---3-3-3-3-3-3--------------------------------------|
E|------------------------------------------------------------|

Bridge:
G|------------------------------------------------------------|
D|------------------------------------------------------------|
A|----5-5-5-5-5---3-3-3-3-3---2-2-2-2-2---5-5-5-5-5-----------|
E|------------------------------------------------------------|

G|------------------------------------------------------------|
D|------------------------------------------------------------|
A|----5-5-5-5-5---3-3-3-3-3---2-2-2-2-2---5-5-5-5-5-----------|
E|------------------------------------------------------------|

Interlude:
G|------------------------------------------------------------|
D|------------------------------------------------------------|
A|----0-5-5-5-5-5---0-3-3-3-3-3---0-2-2-2-2-2---0-5-5-5-5-5---|
E|------------------------------------------------------------|

G|--------------------------------------------------------------|
D|--------------------------------------------------------------|
A|----0-5-5-5-5-5---0-3-3-3-3-3---0-2-2-2-2-2---0-5~~~~~--------|
E|--------------------------------------------------------------|

Chorus:
G|------------------------------------------------------------|
D|-----------------3-2-2-2-2-2---3-3-3-3-3-3---5-5-5-5-5-5----|
A|----3-3-3-3-3-3---------------------------------------------|
E|------------------------------------------------------------|

G|-------------------------------------------------------------|
D|---------------------3-2-2-2-2-2---3-3-3-3-3-3---5-5-5-5-5-5-|
A|---0-1-3-3-3-3-3-3-3-----------------------------------------|
E|-------------------------------------------------------------|

G|------------------------------------------------------------|
D|---------------------3-2-2-2-2-2---3-3-3-3-3-3---5~~~~------|
A|---0-1-3-3-3-3-3-3-3----------------------------------------|
E|------------------------------------------------------------|

G|------------------------------------------------------------|
D|------------------2~~~~------3~~~~--------5~~~~-------------|
A|--------3~~~~-----------------------------------------------|
E|------------------------------------------------------------|

G|------------------------------------------------------------|
D|------------------2~~~~------3~~~~--------5~~~~-------------|
A|--------3~~~~----------------------------------------3~~~~--|
E|------------------------------------------------------------|

End.
Comments