Velvet Revolver - Loving The Alien Chords & Tabs

 

Loving The Alien Chords & Tabs

Velvet Revolver Chords & Tabs

Version: 1 Type: Bass Tab 0 ratings
1 star 2 stars 3 stars 4 stars 5 stars
comments

Loving The Alien Bass Tab

Intro
G-----------------------------|
D-3h5---3h5-------------------|
A------------3----------------|
E-----------------------------|

Verse
G---------------------------------------------------|
D-----------------------------------5-5-55-55-  x 2-|
A-3-3-33-3/12-12-1212-127-7-77-77-------------------|
E---------------------------------------------------|
[ Tab from: http://www.guitartabs.cc/tabs/v/velvet_revolver/loving_the_alien_btab.html ]
Break
G--------------8--9-10------------------------|
D---------------------------------------------|   x 3
A-8-8-88-88-------------10-10-1010-1010-------|
E---------------------------------------------|

Chorus
G---------------------------------------------|
D-------------3-2-----------------------------|   x 2
A--3-3-33-33------3--2-2-22-22----------------|
E---------------------------------------------|

Verse x 2
Break x 3
Chorus x 2

Bridge
G---------------------------------------------|
D----------------------------------0-0-00-00--| x 2
A--5-5-55-55--3-3-33-33--2-2-22-22------------|
E---------------------------------------------|
Comments