Velvet Revolver - Headspace Chords & Tabs

 

Headspace Chords & Tabs

Velvet Revolver Chords & Tabs

Version: 3 Type: Tab 0 ratings
1 star 2 stars 3 stars 4 stars 5 stars
comments

Headspace Tab

   
Velvet Revolver-Headspace tab

s/n: stillenracing93 if u have a question

tuning:drop D

/ slide up 
 \ slide down
 h hammer-on
 p pull-off
 ~ vibrato
 + harmonic
 x Mute note
 ^ bend note



intro
E|---------------------------------------------------------------------|
B|---------------------------------------------------------------------|
G|---------------------------------------------------------------------|
D|-5(x13)-4(x3)--Im not sure how many times to tell u to strum it, its-|
A|-3(x13)-2(x3)--too fast for me to count, so listen to the song to get|
D|---------------it right, but theres the chords, and i might have counted
                                                                     right|
[ Tab from: http://www.guitartabs.cc/tabs/v/velvet_revolver/headspace_tab_ver_3.html ]
E|---------------------------------------------------------------------|
B|---------------------------------------------------------------------|
G|---------------------------------------------------------------------|
D|---5-3----3-0-3-0-3-0-2-(repeat 3x)---5-3----3-0-3-0-3-xxxx-do that--|
A|-3-----5--3-0-3-0-3-0-2-------------3-----5--3-0-3-0-3-xxxx-the 4th--|
D|----------3-0-3-0-3-0-2----------------------3-0-3-0-3-xxxx-time-----|


E|---------------------------------------------------------------------|
B|---------------------------------------------------------------------|
G|---------------------------------------------------------------------|
D|---5-3----3-0-3-0-3-0-2---now just repeat that 4 times---------------|
A|-3-----5--3-0-3-0-3-0-2----------------------------------------------|
D|----------3-0-3-0-3-0-2----------------------------------------------|

and thats all i know for now.......
Comments