Velvet Revolver - Headspace Chords & Tabs

 

Headspace Chords & Tabs

Velvet Revolver Chords & Tabs

Version: 1 Type: Bass Tab 0 ratings
1 star 2 stars 3 stars 4 stars 5 stars
comments

Headspace Bass Tab

Drop D Tuning 

Intro
G|-----------------------------------------------------------------------|
D|-----------------------------------------------------------------------|
A|----333333333333333222/3-----------------------------------------------|x3
D|-----------------------------------------------------------------------|

Main Riff/Chorus
G|-----------------------------------------------------------------------|
D|-----------------------------------------------------------------------|
A|----3-5-3-0------------------------------------------------------------|x8
D|------------3-3-3-2----------------------------------------------------|

Verse
G|-----------------------------------------------------------------------|
D|-----------------------------------------------------------------------|
A|-----------------------------------------------------------------------|x8
D|----5-7-7-5-7-5-7------------------------------------------------------| 

Main Riff/Chorus
G|-----------------------------------------------------------------------|
D|-----------------------------------------------------------------------|
A|----3-5-3-0------------------------------------------------------------|x4
D|------------3-3-3-2----------------------------------------------------|

Verse
G|-----------------------------------------------------------------------|
D|-----------------------------------------------------------------------|
A|-----------------------------------------------------------------------|x8
D|----5-7-7-5-7-5-7------------------------------------------------------|

Main Riff/Chorus
G|-----------------------------------------------------------------------|
D|-----------------------------------------------------------------------|
A|----3-5-3-0------------------------------------------------------------|x8
D|------------3-3-3-2----------------------------------------------------|

"All That Origianal" Part(listen for timing)
G|-----------------------------------------------------------------------|
D|-----------------------------------------------------------------------|
A|-------------------3-3-3-3-1-1-1-1-------------------------------------|x2
D|----0-0-0-0-3-3-3-3----------------------------------------------------|
[ Tab from: http://www.guitartabs.cc/tabs/v/velvet_revolver/headspace_btab.html ]
Main Riff/Chorus
G|-----------------------------------------------------------------------|
D|-----------------------------------------------------------------------|
A|----3-5-3-0------------------------------------------------------------|x8
D|------------3-3-3-2----------------------------------------------------|

Verse
G|-----------------------------------------------------------------------|
D|-----------------------------------------------------------------------|
A|-----------------------------------------------------------------------|x4
D|----5-7-7-5-7-5-7------------------------------------------------------|

Pre-Chorus Part
G|-----------------------------------------------------------------------|
D|-----------------------------------------------------------------------|
A|---0-3-----------------------------------------------------------------|x1
D|-----------------------------------------------------------------------|

Main Riff/Chorus
G|-----------------------------------------------------------------------|
D|-----------------------------------------------------------------------|
A|----3-5-3-0------------------------------------------------------------|x8
D|------------3-3-3-2----------------------------------------------------|

"All That Origianal" Part
G|-----------------------------------------------------------------------|
D|-----------------------------------------------------------------------|
A|--------------------3-3-3-3-1-1-1-1------------------------------------|x2
D|----0-0-0-0-3-3-3-3----------------------------------------------------|

Main Riff/Chorus
G|-----------------------------------------------------------------------|
D|-----------------------------------------------------------------------|
A|----3-5-3-0------------------------------------------------------------|x4
D|------------3-3-3-2----------------------------------------------------|

Intro
G|-----------------------------------------------------------------------|
D|-----------------------------------------------------------------------|
A|----333333333333333222/3-----------------------------------------------|x3
D|-----------------------------------------------------------------------|

Main Riff/Chorus
G|-----------------------------------------------------------------------|
D|-----------------------------------------------------------------------|
A|----3-5-3-0------------------------------------------------------------|x1
D|------------3-3-3-2----------------------------------------------------|

That's about it. Sweet ass song. If its wrong or you know someone who can play
it better, or if you have corrections please email me at TheJimmer2007@aol.com
Comments