Velvet Revolver - Fall To Pieces Chords & Tabs

 

Fall To Pieces Chords & Tabs

Velvet Revolver Chords & Tabs

Version: 1 Type: Bass Tab 0 ratings
1 star 2 stars 3 stars 4 stars 5 stars
comments

Fall To Pieces Bass Tab

standard tuning

Intro 2x
|------------------15/17--16-14-12--|
|--12-14--12-14---------------------|
|-----------------------------------|
|-----------------------------------|

1st Verse
|------------------15/17--16-14-12--|
|--12-14--12-14---------------------| 4x
|-----------------------------------|
|-----------------------------------|
[ Tab from: http://www.guitartabs.cc/tabs/v/velvet_revolver/fall_to_pieces_btab.html ]
|-------------------------------|
|--14-14-14-14-14-14-14-14--12\-|
|-------------------------------|
|-------------------------------|

Interlude w/ distortion
|------------------15/17--16-14-14-14h16-12-|
|--12-14--12-14-----------------------------| 2x
|-------------------------------------------|
|-------------------------------------------|

2nd Verse
|------------------15/17--16-14-14-14h16-12-|
|--12-14--12-14-----------------------------| 4x
|-------------------------------------------|
|-------------------------------------------|

dont have chorus or solo yet
Comments