Velvet Revolver - Dirty Little Thing Chords & Tabs

 

Dirty Little Thing Chords & Tabs

Velvet Revolver Chords & Tabs

Version: 1 Type: Bass Tab 0 ratings
1 star 2 stars 3 stars 4 stars 5 stars
comments

Dirty Little Thing Bass Tab

Band - Velvet Revolver
Song - Dirty Little Thing

Intro:
G|----999999999999999999999999999-----|
D|------------------------------------|
A|------------------------------------|
E|------------------------------------|

Verse:
G|------------------------------------|  
D|------------------------------------|      
A|------------------------------------| x4
E|-0--3--0--5--0--6--0--5--3/5---3----|

Prechorus:
G|------------------------------------|  
D|------------------------------------|
A|------------------------------------| x2
E|-5--5---55---5---5---5----5---5---5-|

Verse:
G|------------------------------------|  
D|------------------------------------|
A|------------------------------------| x4
E|-0--3--0--5--0--6--0--5--3/5---3----|

Prechorus:
G|------------------------------------|  
D|------------------------------------|       
A|-3333333333-------------------------|
E|--------------55555555555-----------|

Chorus:
|-----------------------------------------------|
|-----------------------------------------------|
|--------3----------5--------3---2--------------|
|-0------------0---------0----------0--5--0--3--|

Verse:
G|------------------------------------|  
D|------------------------------------|
A|------------------------------------| x4
E|-0--3--0--5--0--6--0--5--3/5---3----|
[ Tab from: http://www.guitartabs.cc/tabs/v/velvet_revolver/dirty_little_thing_btab.html ]
Prechorus:
G|------------------------------------|  
D|------------------------------------|
A|------------------------------------| x2
E|-5--5---55---5---5---5----5---5---5-|

Verse:
G|------------------------------------|  
D|------------------------------------|
A|------------------------------------| x4
E|-0--3--0--5--0--6--0--5--3/5---3----|

Prechorus:
G|------------------------------------|  
D|------------------------------------|       
A|-3333333333-------------------------|
E|--------------55555555555-----------|

Chorus:
G|-----------------------------------------------|
D|-----------------------------------------------|
A|--------3----------5--------3---2--------------|
E|-0------------0---------0----------0--5--0--3--|

Interlude:
G|-----------------------------------------------|
D|-----------------------------------------------|
A|-----------------------------------------------|
E|-000000000000000000000000000000000-------------|

G|-----------------------------------------------|
D|-----------------------------------------------|
A|-----------------------333333333333333---------|
E|-000000000000000-------------------------------|

Chorus:
G|-----------------------------------------------|
D|-----------------------------------------------|
A|--------3----------5--------3---2--------------|
E|-0------------0---------0----------0--5--0--3--|

End.
Comments