Velvet Revolver - Big Machine Chords & Tabs

 

Big Machine Chords & Tabs

Velvet Revolver Chords & Tabs

Version: 2 Type: Bass Tab 0 ratings
1 star 2 stars 3 stars 4 stars 5 stars
comments

Big Machine Bass Tab

   
----------------------------------------------------------------------------
Big Machine     Velvet Revolver
----------------------------------------------------------------------------

Tabbed By: AbortedTapeworm
E-mail: Shotgun_Abortion@hotmail.com

Tuning: Standard

INTRO: DISTORTION

G|-----------||
D|-----------||   X 20
A|-----------||
E|-0---0-0-1-||

VERSE: DISTORTION

G|-----------||
D|-----------||   X 12
A|-----------||
E|-0---0-0-1-||

PRE CHORUS: DISTORTION

G|-----------||
D|-----------||   X 16
A|-----------||
E|-0---0-0-1-||

G|-----------------||
D|-----------------||   X 1
A|-----------------||
E|-5-5-5-5-5-5-5-5-||

CHORUS: DISTORTION
[ Tab from: http://www.guitartabs.cc/tabs/v/velvet_revolver/big_machine_btab_ver_2.html ]
G|-----------|     G|-14-13-12-10-8-7-6-|     G|-----------||
D|-----------| X 4 D|-------------------| X 1 D|-----------|| X 4
A|-----------|     A|-------------------|     A|-----------||
E|-0---0-0-1-|     E|-------------------|     E|-0---0-0-1-||

(X 3)

BRIDGE:

G|-----------||         G|-----------||
D|-----------||   X 16  D|-----------||   X 16
A|-----------||         A|-----------||
E|-0---0-0-1-||         E|-0---0-0-1-||

END: DISTORTION

G|----------------------------||
D|----------------------------||
A|----------------------------||
E|-0-0-X-0-0-X-0-0-X-0-0-X--0-||

ORDER:

Intro
Verse
Pre Chorus
Chorus
Verse
Pre Chorus
Chorus
Bridge
Verse
Pre Chorus
Chorus
Drum Fill
Pre Chorus
Chorus
End                  PLEASE RATE
Comments